Song name
# A B C D E F G H I J K L M N O P Q R S T U V W X Y Z

Reuben - Song For Saturday tab

-------------------------------------------------------------------------------
			    Song For Saturday - Reuben
-------------------------------------------------------------------------------
Tabbed by: Ben Jones
Email: nothing_like_you@hotmail.co.uk

Tuning: drop D and in flats

Db Ab Db Gb Bb Eb 

this is an awesome song off the album Racecar Is Racecar Backwards

i hope this tab does it justice

Intro

Eb|--------------------------------------------------------------------------------|
Bb|--------------------------------------------------------------------------------|
Gb|--------------------------------------------------------------------------------|
Db|---------0---------0---------4-----4----------0----------0---------4\2--2\0-0---|
Ab|------0---------0---------0----------------0----------0----------0--------------|
Db|-0/4-------4-5-------5-0---------0---0--4--------4-5--------5-0----------------0|

Eb|--------------------------------------------------------------------------------|
Bb|--------------------------------------------------------------------------------|
Gb|--------------------------------------------------------------------------------|
Db|---------0---------0----------4\7-7\12-12-----------0---------0---------4--\2--0|
Ab|------0---------0----------0---------------------0---------0---------0----------|
Db|---4-------4-5--------5-0------------------0--4-------4-5-------5-0-------------|

Chorus

Eb|--------------------------------------------------------------------------|
Bb|------------------0----------------------------------------------0--------|
Gb|------------------4----------------------4-----------------------4--------|
Db|------------------5-------------------------5--------------------5--------|
Ab|-5-----3----3-----5-----5------3----3-----------5-----3----3-----5--------|
Db|-3-----1----1-----5-----3------1----1-----------3-----1----1-----5--------|

Eb|--------------------------------------------------------------------------|
Bb|--------------------------------------------------------------------------|
Gb|-----------------0------------0-----0-------------------------------------|
Db|--------------------------------------------------------------------------|
Ab|--------------------------------------------------------------------------|
Db|--3--3----/5---1~---------------------------------------------------------|

Preverse 

Eb|--------------------------------------------------------------------------|
Bb|--------------------------------------------------------------------------|
Gb|--------------------------------------------------------------------x2----|
Db|-0-0-0-0-0-0-0-0-0-0-0-0-0-0-0-0-0-0-0-0-0-0-0-0-0-0-0-0-0-0-0-0----------|
Ab|-5-5-5-5-5-5-4-5-5-5-5-5-5-5-5-5-5-5-5-5-5-5-4-5-5-9-9-9-9-7-7-0----------|
Db|-0-0-0-0-0-0-0-0-0-0-0-0-0-0-0-0-0-0-0-0-0-0-0-0-0-0-0-0-0-0-0-0----------|

Eb|--------------------------------------------------------------------------|
Bb|--------------------------------------------------------------------------|
Gb|--------------------------------------------------------------------------|
Db|--------------------------------------------------------------------------|
Ab|-5-9-9-9-9-12-12-0--------------------------------------------------------|
Db|-0-0-0-0-0-0--0--0--------------------------------------------------------|

Verse

Eb|--------------------------------------------------------------------------|
Bb|--------------------------------------------------------------------------|
Gb|--------------------------------------------------------------------------|
Db|--------------------------------------------------------------------------|
Ab|-5-5-5-5-5-5-4h5-5-5-5-5-5-5-5-5-5-5-5-5-5-5-4h5-5-9-9-9-9-7-7-0----------|
Db|-4-4-4-4-5-5-5-5-0-0-0-0-0-0-0-0-4-4-4-4-5-5-5-5-0-0-0-0-0-0-0-0----------|

Eb|--------------------------------------------------------------------------|
Bb|--------------------------------------------------------------------------|
Gb|--------------------------------------------------------------------------|
Db|--------------------------------------------------------------------------|
Ab|-5-5-5-5-5-5-4h5-5-5-5-5-5-5-5-5-5-5-5-5-5-5-4h5--------------------------|
Db|-4-4-4-4-5-5-5-5-0-0-0-0-0-0-0-0-4-4-4-4-5-5-5-5--------------------------|


Chorus

Eb|-----------------------------------------7--------------------------------|
Bb|------------------0-------------------------8--------------------0--------|
Gb|------------------4----------------------------------------------4--------|
Db|------------------5----------------------------------------------5--------|
Ab|-5-----3----3-----5-----5------3----3-----------5-----3----3-----5--------|
Db|-3-----1----1-----5-----3------1----1-----------3-----1----1-----5--------|

Eb|--------------------------------------------------------------------------|
Bb|--------------------------------------------------------------------------|
Gb|-----------------0------------0-----0------------------0~-----------------|
Db|--------------------------------------------------------------------------|
Ab|--------------------------------------------------------------------------|
Db|--3--3----/5---1~----------------------3--3----/5--1~---------------------|

Interlude

Eb|------------------------------------------------------------------------------|
Bb|-------------------------------------------------------------------------x2---|
Gb|------------------------------------------------------------------------------|
Db|---------0---------0---------4-----4----------0----------0---------4\2--2\0-0-|
Ab|------0---------0---------0----------------0----------0----------0------------|
Db|---4-------4-5-------5-0---------0---0--4--------4-5--------5-0---------------|

Breakdown

Eb|--------------------------------------------------------------------------|
Bb|--------------------------------------------------------------------------|
Gb|----------------------------------------------------------------------x2--|
Db|--10-------10----7------7-7-7-7------------7-7-7-7-----------7-9----------|
Ab|--8-----8--8--8--5------5-5-5-5------------5-5-5-5-----------5-7----------|
Db|--8-----8--8--8--5------5-5-5-4------------4-4-4-5-----------5-7----------|

Bridge

eb|--------------------------------------------------------------------------|
Bb|--------------------------------------------------------------------------|
Gb|-----------------------------------------------------------------------x2-|
Db|--10~--------7~---------7~----------7~------------------------------------|
Ab|--8~---------5~---------5~----------5~------------------------------------|
Db|--8~---------5~---------4~----------5~------------------------------------|


eb|--------------------------------------------------------------------------|
Bb|-6-6-6-6-8-8-8-8-7-7-7-7-10-10-10-10--------------------------------------|
Gb|--7-7-7-7-7-7-7-7-7-7-7-7--7--7--7----------------------------------------|
Db|--------------------------------------------------------------------------|
Ab|-----------------------------------------------------------------------x2-|
Db|--------------------------------------------------------------------------|

(Viola joins)

eb|--------------------------------------------------------------------------|
Bb|--6-6-6-6-5-5-5-5-7-7-7-7-10-10-10-10-------------------------------------|
Gb|---7-7-7-7-7-7-7-7-7-7-7-7--7--7--7---------------------------------------|
Db|--------------------------------------------------------------------------|
Ab|--------------------------------------------------------------------------|
Db|--------------------------------------------------------------------------|

eb|--------------------------------------------------------------------------|
Bb|--6-6-6-6-5-5-5-5--7-7-7-7-7-8-7-8-10-10-10-10-10-10-10-10----------------|
Gb|---7-7-7-7-7-7-7-7-7-7-7-7-7-7-7-7-7--7--7--7--7--7--7--7-----------------|
Db|--------------------------------------------------------------------------|
Ab|--------------------------------------------------------------------------|
Db|--------------------------------------------------------------------------|

Outro

Eb|--------------------------------------------------------------------------|
Bb|--------------------------------------------------------------------------|
Gb|--------------------------------------------------------------------------|
Db|---------0---------0--------------------0----------0----------------------|
Ab|------0---------0---------0----------0----------0-------------------------|
Db|---4-------4-5-------5-0-------0--4--------4-5--------5-0-----------------|


VIOLA PART- translated to guitar

Eb|--------------------------------------------------------------------------|
Bb|--13-------------10-------------10----------10----------------------------|
Gb|--------------------------------------------------------------------------|
Db|--10-------------7--------------------------------------------------------|
Ab|--------------------------------9-----------10----------------------------|
Db|--------------------------------------------------------------------------|

Eb|-----------------12------15-----14-----15-14-15-17-17-17-17-17-17-17-17---|
Bb|--13----15----------------------------------------------------------------|
Gb|--------------------------------------------------------------------------|
Db|--10-------------7--------------------------------------------------------|
Ab|--------------------------------9---------------13-13-13-13-13-13-13-13---|
Db|--------------------------------------------------------------------------|

| /  slide up
| \  slide down
| h  hammer-on
| p  pull-off
| ~  vibrato
| +  harmonic
| x  Mute note

===============================================================================
Tap to rate this tab
# A B C D E F G H I J K L M N O P Q R S T U V W X Y Z