Song name
# A B C D E F G H I J K L M N O P Q R S T U V W X Y Z

Reuben - Moving To Blackwater tab

Artist/Band - Reuben
Album - Racecar Is Racecar Backwards
Song - Moving To Blackwater


Tuning: C# G# C# F# Bb D#

Key:
PM = Palm Mute
\  = Slide Up
/  = Slide Down


Intro:
D#]--------------------------------------------------------------------------------|
Bb]--------------------------------------------------------------------------------|
F#]--------------------------------------------------------------------------------|
C#]--9-9-9-9-12-14---12-8-8-8-8-12-14---12-7-7-7-7-12-14---12-6-6-6-6-12-14-12-11--|
G#]--9-9-9-9-12-14---12-8-8-8-8-12-14---12-7-7-7-7-12-14---12-6-6-6-6-12-14-12-11--|
C#]--9-9-9-9-12-14---12-8-8-8-8-12-14---12-7-7-7-7-12-14---12-6-6-6-6-12-14-12-11--|

D#]-----------------------------------------------------------------------------|
Bb]-----------------------------------------------------------------------------|
F#]-----------------------------------------------------------------------------|
C#]--9-9-9-9-12-14---12-8-8-8-8-12-14---12-7-7-7-7-12-14---12-6-6-6-6-12-14-16--|
G#]--9-9-9-9-12-14---12-8-8-8-8-12-14---12-7-7-7-7-12-14---12-6-6-6-6-12-14-16--|
C#]--9-9-9-9-12-14---12-8-8-8-8-12-14---12-7-7-7-7-12-14---12-6-6-6-6-12-14-16--|


Verse 1:
D#]------------------------------------------------------------|
Bb]------------------------------------------------------------|
F#]------------------------------------------------------------|
C#]--9-9-9-9-9-9--7-7-7-7-7-7--12-12-12-12-12-12--2-2-2-2-2-2--| x2
G#]--9-9-9-9-9-9--7-7-7-7-7-7--12-12-12-12-12-12--2-2-2-2-2-2--|
C#]--9-9-9-9-9-9--7-7-7-7-7-7--12-12-12-12-12-12--2-2-2-2-2-2--|
PM   . . . . . .  . . . . . .   .  .  .  .  .  .  . . . . . .


Chorus:
D#]----------------------------------------------------|
Bb]----------------------------------------------------|
F#]----------------------------------------------------|
C#]--12-12-12-12-12-12-12-12--14-14-14-14-14-14-14-14--| x2
G#]--12-12-12-12-12-12-12-12--14-14-14-14-14-14-14-14--|
C#]--12-12-12-12-12-12-12-12--14-14-14-14-14-14-14-14--|


Bridge:
D#]--------------------------------------------------------------------------------|
Bb]--------------------------------------------------------------------------------|
F#]--------------------------------------------------------------------------------|
C#]--9-9-9-9-12-14---12-8-8-8-8-12-14---12-7-7-7-7-12-14---12-6-6-6-6-12-14-12-11--|
G#]--9-9-9-9-12-14---12-8-8-8-8-12-14---12-7-7-7-7-12-14---12-6-6-6-6-12-14-12-11--|
C#]--9-9-9-9-12-14---12-8-8-8-8-12-14---12-7-7-7-7-12-14---12-6-6-6-6-12-14-12-11--|

D#]-----------------------------------------------------------------------------|
Bb]-----------------------------------------------------------------------------|
F#]-----------------------------------------------------------------------------|
C#]--9-9-9-9-12-14---12-8-8-8-8-12-14---12-7-7-7-7-12-14---12-6-6-6-6-12-14-16--|
G#]--9-9-9-9-12-14---12-8-8-8-8-12-14---12-7-7-7-7-12-14---12-6-6-6-6-12-14-16--|
C#]--9-9-9-9-12-14---12-8-8-8-8-12-14---12-7-7-7-7-12-14---12-6-6-6-6-12-14-16--|


Verse 2:
D#]------------------------------------------------------------|
Bb]------------------------------------------------------------|
F#]------------------------------------------------------------|
C#]--9-9-9-9-9-9--7-7-7-7-7-7--12-12-12-12-12-12--2-2-2-2-2-2--| x2
G#]--9-9-9-9-9-9--7-7-7-7-7-7--12-12-12-12-12-12--2-2-2-2-2-2--|
C#]--9-9-9-9-9-9--7-7-7-7-7-7--12-12-12-12-12-12--2-2-2-2-2-2--|
PM   . . . . . .  . . . . . .   .  .  .  .  .  .  . . . . . .

D#]--------------------------------------------------------------------------------|
Bb]--------------------------------------------------------------------------------|
F#]--------------------------------------------------------------------------------|
C#]--9-9-9-9-12-14---12-8-8-8-8-12-14---12-7-7-7-7-12-14---12-6-6-6-6-12-14-12-11--|
G#]--9-9-9-9-12-14---12-8-8-8-8-12-14---12-7-7-7-7-12-14---12-6-6-6-6-12-14-12-11--|
C#]--9-9-9-9-12-14---12-8-8-8-8-12-14---12-7-7-7-7-12-14---12-6-6-6-6-12-14-12-11--|

D#]------------------------------------------------------------------------------|
Bb]------------------------------------------------------------------------------|
F#]------------------------------------------------------------------------------|
C#]--9-9-9-9-12-14-16---8-8-8-8-12-14-16---7-7-7-7-12-14---12-6-6-6-6-6-6-6-6-6--|
G#]--9-9-9-9-12-14-16---8-8-8-8-12-14-16---7-7-7-7-12-14---12-6-6-6-6-6-6-6-6-6--|
C#]--9-9-9-9-12-14-16---8-8-8-8-12-14-16---7-7-7-7-12-14---12-6-6-6-6-6-6-6-6-6--|


Chorus:
D#]----------------------------------------------------|
Bb]----------------------------------------------------|
F#]----------------------------------------------------|
C#]--12-12-12-12-12-12-12-12--14-14-14-14-14-14-14-14--| x3
G#]--12-12-12-12-12-12-12-12--14-14-14-14-14-14-14-14--|
C#]--12-12-12-12-12-12-12-12--14-14-14-14-14-14-14-14--|

D#]-----------------------------------|
Bb]-----------------------------------|
F#]-----------------------------------|
C#]--4-4-4-4-4-4-4-4-4-4-4-4-4-4-4-4--|
G#]--4-4-4-4-4-4-4-4-4-4-4-4-4-4-4-4--|
C#]--4-4-4-4-4-4-4-4-4-4-4-4-4-4-4-4--|


Breakdown:
D#]----------------------------------------|
Bb]----------------------------------------|
F#]----------------------------------------|
C#]--4-4-4-4--2-2-2--0-2-2-2--2-2-2-4-5-4--| x4
G#]--4-4-4-4--2-2-2--0-2-2-2--2-2-2-4-5-4--|
C#]--4-4-4-4--2-2-2--0-2-2-2--2-2-2-4-5-4--|


Outro Part 1: x4
D#]----------------------------------------------------|
Bb]----------------------------------------------------|
F#]----------------------------------------------------|
C#]--12-12-12-12-12-12-12-12--14-14-14-14-14-14-14-14--|
G#]--12-12-12-12-12-12-12-12--14-14-14-14-14-14-14-14--|
C#]--12-12-12-12-12-12-12-12--14-14-14-14-14-14-14-14--|

D#]------------------------------|
Bb]------------------------------|
F#]------------------------------|
C#]--4-4-4-4-4-4-4-4--4-4-5-6-6--|
G#]--4-4-4-4-4-4-4-4--4-4-5-6-6--|
C#]--4-4-4-4-4-4-4-4--4-4-5-6-6--|


Outro Part 2:
D#]----------------------------------------------------|
Bb]----------------------------------------------------|
F#]----------------------------------------------------|
C#]--12-12-12-12-12-12-12-12--14-14-14-14-14-14-14-14--|
G#]--12-12-12-12-12-12-12-12--14-14-14-14-14-14-14-14--|
C#]--12-12-12-12-12-12-12-12--14-14-14-14-14-14-14-14--|

D#]---------------------------------------------------------------|
Bb]---------------------------------------------------------------|
F#]---------------------------------------------------------------|
C#]--4-4-4-4-4-4-4-4--4-4-5-6-6--4-4-5-6-6--4-4-5-6-6--4-4-5-6-6--|
G#]--4-4-4-4-4-4-4-4--4-4-5-6-6--4-4-5-6-6--4-4-5-6-6--4-4-5-6-6--|
C#]--4-4-4-4-4-4-4-4--4-4-5-6-6--4-4-5-6-6--4-4-5-6-6--4-4-5-6-6--|
Tap to rate this tab
# A B C D E F G H I J K L M N O P Q R S T U V W X Y Z