Song name
# A B C D E F G H I J K L M N O P Q R S T U V W X Y Z

Reuben - Shambles tab

Artist/Band - Reuben
Album - Pilot
Song - Shambles


Tuning: Drop D (D A D G B E)

Key:
x = Mute


Intro:
E]-------------------------------------|
B]-------------------------------------|
G]--10-10-9-7-7-7-7-7-7-7-7-7-7-7-7-7--|
D]--10-10-9-7-7-7-7-7-7-7-7-7-7-7-7-7--| x12
A]---8--8-7-5-5-5-5-5-5-5-5-5-5-5-5-5--|
D]-------------------------------------|

E]-----------|
B]-----------|
G]--10-10-9--|
D]--10-10-9--|
A]---8--8-7--|
D]-----------|


Intro Piano Section:
(Piano arranged for Guitar)
E]----------------------------|
B]----------------------------|
G]----------------------------|
D]-------7--------7--------4--| x4
A]----8---------8--------5----|
D]--8---------5--------0------|


Verse:
E]-----------------------------------|
B]-----------------------------------|
G]-----------------------------------|
D]-----------------------------------| x4
A]--5-5-5-5-5-5-5-5-5-5-5-5-5-5-5-5--|
D]-----------------------------------|


Outro Piano Section:
(Piano arranged for Guitar)
E]--------------------------------|
B]--------------------------------|
G]--------------------------------|
D]--4--------3--------2--------5--|
A]--5--------5--------5--------x--|
D]--0--------3--------5--------5--|

E]--------------------------------|
B]--------------------------------|
G]--------------------------------|
D]--4--------3--------2--------5--|
A]--5--------5--------5--------x--|
D]--0--------3--------5--------5--|
Tap to rate this tab
# A B C D E F G H I J K L M N O P Q R S T U V W X Y Z