Song name
# A B C D E F G H I J K L M N O P Q R S T U V W X Y Z

Reuben - Some Mothers Do Ave Em tab

Artist/Band - Reuben
Album - Very Fast Very Dangerous
Song - Some Mothers Do 'Ave 'Em


Tuning: C# D# C# F# A# D#

Key:
x = Mute Note
~ = Let Note Ring
/ = Slide



Intro:
D#]-----------------------------------|
A#]-----------------------------------|
F#]-----------------------------------|
C#]-----------------------------------| x7
D#]--------------------------------5--|
C#]--0-0-0-0-0-0-0-0-0-0-0-0-7-6-5----|

D#]-------------------------------------|
A#]-------------------------------------|
F#]-------------------------------------|
C#]--------------------------3-5-5-3-3--|
D#]--------------------------3-5-5-3-3--|
C#]--0-0-0-0-0-0-0-0-0-0-0-0-3-5-5-3-3--|


Verse 1:
D#]-----------------------------------|
A#]-----------------------------------|
F#]-----------------------------------|
C#]-----------------------------------| x3
D#]--------------------------------5--|
C#]--0-0-0-0-0-0-0-0-0-0-0-0-7-6-5----|

D#]-------------------------------------|
A#]-------------------------------------|
F#]-------------------------------------|
C#]--------------------------3-5-5-3-3--|
D#]--------------------------3-5-5-3-3--|
C#]--0-0-0-0-0-0-0-0-0-0-0-0-3-5-5-3-3--|

D#]-----------------------------------|
A#]-----------------------------------|
F#]-----------------------------------|
C#]-----------------------------------| x3
D#]--------------------------9-9-9-9--|
C#]--0-0-0-0-0-0-0-0-0-0-0-0----------|

D#]--------------------------------------------|
A#]--------------------------------------------|
F#]--------------------------------------------|
C#]--------------------------3-5-5-3-3--3-5-5--|
D#]--------------------------3-5-5-3-3--3-5-5--|
C#]--0-0-0-0-0-0-0-0-0-0-0-0-3-5-5-3-3--3-5-5--|


Chorus:
D#]-----------------------------------|
A#]-----------------------------------|
F#]--------------------------5-5-5-5--|
C#]--3-3-3-3-3-3-3-3-3-3-3-3-x-x-x-x--| x2
D#]--3-3-3-3-3-3-3-3-3-3-3-3-3-3-3-3--|
C#]--3-3-3-3-3-3-3-3-3-3-3-3----------|

D#]-----------------------------------|
A#]-----------------------------------|
F#]--------------------------5-5-5-5--|
C#]--0-0-0-0-0-0-0-0-0-0-0-0-x-x-x-x--| x2
D#]--0-0-0-0-0-0-0-0-0-0-0-0-3-3-3-3--|
C#]--0-0-0-0-0-0-0-0-0-0-0-0----------|

D#]-----------------------------------|
A#]-----------------------------------|
F#]--------------------------5-5-5-5--|
C#]--3-3-3-3-3-3-3-3-3-3-3-3-x-x-x-x--| x2
D#]--3-3-3-3-3-3-3-3-3-3-3-3-3-3-3-3--|
C#]--3-3-3-3-3-3-3-3-3-3-3-3----------|

D#]-----------------------------------|
A#]-----------------------------------|
F#]--------------------------5-5-5-5--|
C#]--0-0-0-0-0-0-0-0-0-0-0-0-x-x-x-x--| x2
D#]--0-0-0-0-0-0-0-0-0-0-0-0-3-3-3-3--|
C#]--0-0-0-0-0-0-0-0-0-0-0-0----------|


Post-Chorus:
D#]-----------------------------------|
A#]-----------------------------------|
F#]-----------------------------------|
C#]-----------------------------------| x3
D#]--------------------------------5--|
C#]--0-0-0-0-0-0-0-0-0-0-0-0-7-6-5----|

D#]-------------------------------------|
A#]-------------------------------------|
F#]-------------------------------------|
C#]--------------------------3-5-5-3-3--|
D#]--------------------------3-5-5-3-3--|
C#]--0-0-0-0-0-0-0-0-0-0-0-0-3-5-5-3-3--|


Verse 2:
D#]------------------------------|
A#]------------------------------|
F#]------------------------------| 
C#]------------------------------| x3
D#]--12-15-12-0-0-0-12-15-12-15--| 
C#]------------------------------|

D#]----------------------------|
A#]----------------------------|
F#]----------------------------| 
C#]-----------------3-5-5-3-3--|
D#]--12-15-12-0-0-0-3-5-5-3-3--| 
C#]-----------------3-5-5-3-3--|

D#]-----------------------------------|
A#]-----------------------------------|
F#]-----------------------------------|
C#]-----------------------------------| x3
D#]--------------------------9-9-9-9--|
C#]--0-0-0-0-0-0-0-0-0-0-0-0----------|

D#]--------------------------------------------|
A#]--------------------------------------------|
F#]--------------------------------------------|
C#]--------------------------3-5-5-3-3--3-5-5--|
D#]--------------------------3-5-5-3-3--3-5-5--|
C#]--0-0-0-0-0-0-0-0-0-0-0-0-3-5-5-3-3--3-5-5--|


Chorus:
D#]-----------------------------------|
A#]-----------------------------------|
F#]--------------------------5-5-5-5--|
C#]--3-3-3-3-3-3-3-3-3-3-3-3-x-x-x-x--| x2
D#]--3-3-3-3-3-3-3-3-3-3-3-3-3-3-3-3--|
C#]--3-3-3-3-3-3-3-3-3-3-3-3----------|

D#]-----------------------------------|
A#]-----------------------------------|
F#]--------------------------5-5-5-5--|
C#]--0-0-0-0-0-0-0-0-0-0-0-0-x-x-x-x--| x2
D#]--0-0-0-0-0-0-0-0-0-0-0-0-3-3-3-3--|
C#]--0-0-0-0-0-0-0-0-0-0-0-0----------|

D#]-----------------------------------|
A#]-----------------------------------|
F#]--------------------------5-5-5-5--|
C#]--3-3-3-3-3-3-3-3-3-3-3-3-x-x-x-x--| x2
D#]--3-3-3-3-3-3-3-3-3-3-3-3-3-3-3-3--|
C#]--3-3-3-3-3-3-3-3-3-3-3-3----------|

D#]-----------------------------------|
A#]-----------------------------------|
F#]--------------------------5-5-5-5--|
C#]--0-0-0-0-0-0-0-0-0-0-0-0-x-x-x-x--| x2
D#]--0-0-0-0-0-0-0-0-0-0-0-0-3-3-3-3--|
C#]--0-0-0-0-0-0-0-0-0-0-0-0----------|


Breakdown:
D#]---------------------------|
A#]---------------------------|
F#]---------------------------|
C#]--0~---0~---0~---0~-0~-0~--|
D#]--0~---0~---0~---0~-0~-0~--|
C#]--0~---0~---0~---0~-0~-0~--|


Bridge:
D#]----------------------------------------------------------------------|
A#]----------------------------------------------------------------------|
F#]----------------------------------------------------------------------|
C#]----------------------------------------------------------------------| x5
D#]------5-----5-----5-----5----------------5-----5-----5----------------|
C#]--2-2---2-2---2-2---2-2---2-2-0-1----2-2---2-2---2-2---0-0-0-0-0-0-1--|

D#]-------------------------------|
A#]-------------------------------|
F#]-------------------------------|
C#]-------------------------------| x4
D#]-------------------------------|
C#]--x-x-7-7-2-2-3-3-5-5-2-2-3-3--|

D#]-------------------------------|
A#]-------------------------------|
F#]-------------------------------|
C#]--x-x-7-7-2-2-3-3-5-5-2-2-3-3--| x4
D#]--x-x-7-7-2-2-3-3-5-5-2-2-3-3--|
C#]--x-x-7-7-2-2-3-3-5-5-2-2-3-3--|


Pre-Chorus:
D#]-----------------------------------|
A#]-----------------------------------|
F#]-----------------------------------|
C#]-----------------------------------| x4
D#]--------------------------------5--|
C#]--0-0-0-0-0-0-0-0-0-0-0-0-7-6-5----|


Chorus:
D#]-----------------------------------|
A#]-----------------------------------|
F#]--------------------------5-5-5-5--|
C#]--3-3-3-3-3-3-3-3-3-3-3-3-x-x-x-x--| x2
D#]--3-3-3-3-3-3-3-3-3-3-3-3-3-3-3-3--|
C#]--3-3-3-3-3-3-3-3-3-3-3-3----------|

D#]-----------------------------------|
A#]-----------------------------------|
F#]--------------------------5-5-5-5--|
C#]--0-0-0-0-0-0-0-0-0-0-0-0-x-x-x-x--| x2
D#]--0-0-0-0-0-0-0-0-0-0-0-0-3-3-3-3--|
C#]--0-0-0-0-0-0-0-0-0-0-0-0----------|

D#]-----0~-------0~----------| 
A#]-----0~-------0~----------| 
F#]-----0~-------0~----------| 
C#]--3--3~----3--3~----------| 
D#]--3--3~----3--3~----------| 
C#]--3--3~----3--3~----3/12--|

D#]-----------------------------------|
A#]-----------------------------------|
F#]--------------------------5-5-5-5--|
C#]--0-0-0-0-0-0-0-0-0-0-0-0-x-x-x-x--| x2
D#]--0-0-0-0-0-0-0-0-0-0-0-0-3-3-3-3--|
C#]--0-0-0-0-0-0-0-0-0-0-0-0----------|


Outro Chorus:
D#]-----------------------------------|
A#]-----------------------------------|
F#]--------------------------5-5-5-5--|
C#]--3-3-3-3-3-3-3-3-3-3-3-3-x-x-x-x--| x2
D#]--3-3-3-3-3-3-3-3-3-3-3-3-3-3-3-3--|
C#]--3-3-3-3-3-3-3-3-3-3-3-3----------|

D#]------------------------------------------|
A#]------------------------------------------|
F#]------10---10---9-9-------10---10-12-9-9--|
C#]--0-0--x-0--x-0-x-x---0-0--x-0--x--x-x-x--|
D#]--0-0--8-0--8-0-7-7---0-0--8-0--8-10-7-7--|
C#]--0-0----0----0-------0-0----0------------|

D#]-----------------------------------|
A#]-----------------------------------|
F#]--------------------------5-5-5-5--|
C#]--3-3-3-3-3-3-3-3-3-3-3-3-x-x-x-x--| x2
D#]--3-3-3-3-3-3-3-3-3-3-3-3-3-3-3-3--|
C#]--3-3-3-3-3-3-3-3-3-3-3-3----------|

D#]-----------------------------------------------------------|
A#]-----------------------------------------------------------|
F#]-----------------------------------------------------------|
C#]-----------------------------------------------------------|
D#]------5p35p35p3-----5p35p35p3-----5p35p35p3-----5p35p35p3--|
C#]--0-0-----------0-0-----------0-0-----------0-0------------| 


Outro:
D#]-----------------------------------|
A#]-----------------------------------|
F#]-----------------------------------| 
C#]--0-0-0-0-0-0-0-0-0-0-0-0-0-0-0-0--| 
D#]--0-0-0-0-0-0-0-0-0-0-0-0-0-0-0-0--| 
C#]--0-0-0-0-0-0-0-0-0-0-0-0-0-0-0-0--|

D#]-----------------------------------|
A#]-----------------------------------|
F#]-----------------------------------|
C#]--1-1-1-1-1-1-1-1-3-3-3-3-5-5-7-7--|
G#]--1-1-1-1-1-1-1-1-3-3-3-3-5-5-7-7--|
C#]--1-1-1-1-1-1-1-1-3-3-3-3-5-5-7-7--|
Tap to rate this tab
# A B C D E F G H I J K L M N O P Q R S T U V W X Y Z