Song name
# A B C D E F G H I J K L M N O P Q R S T U V W X Y Z

Reuben - Return Of The Jedi tab

Artist:Reuben
Song:Return Of The Jedi
Album:Very Fast Very Dangerous
Guitarist:Jamie Lenman
Tabbed by:Duncan S/reelbigfish432

OK, this is the third tab and in my opinion the only fully complete one, so let me know 
you get on.
Epic song from the awesome Reuben who are unfortunately on `Indefinate Hiatus` so we 
know if we'll be hearing from them again.

This song is in a weird tuning which is, high to low:
B
G
F#
C#
G#
C#

Also, this song doesn't really have verses or a chorus, so I've put the lyrics so you 
which bit is which, but it should be easy to figure out.

Tab Legend
. (under notes/chords) - palm mute
~ - tremelo/vibrato
h - hammer on
p - pull off
\ - slide down
/ - slide up
b - bend

note:for some bits, the pattern is of strumming is repeated so to save space I've just 
the pattern once then the chords

note:I know the tuning down the side is wrong, but it would be awkward to change it, so 
tuning at the top of this page is the RIGHT tuning

Intro:
"Piracy, is piracy..."
Eb|------------------------------|------------------------------|
Bb|------------------------------|------------------------------|
Gb|------------------------------|------------------------------|
Db|------------------------------|------------------------------|
Ab|------------------------------|------------------------------|
Db|-12-12-12-0--12-12-12-0--12-0-|-12-12-12-0--12-12-12-0--12-0-|

Eb|------------------------------|----------------------------|
Bb|------------------------------|----------------------------|
Gb|------------------------------|----------------------------|
Db|------------------------------|----------------------------|x5
Ab|------------------------------|----------------------------|
Db|-12-12-12-0--12-12-12-0--12-0-|-12-12-12-0--12-12-12-0--12-|

"them, killed them..."
Eb|--------------------------------------------|
Bb|--------------------------------------------|
Gb|--------------------------------------------|
Db|--------------------------------------------|
Ab|--------------------------------------------|
Db|-0-0-0-0-0--0-0-0-0-0--0-0-0-0-0--0-0-0-0-0-|

"I got some news for..."
note:repeat strumming pattern
Eb|---------------------------------|----|---|---|
Bb|---------------------------------|----|---|---|
Gb|---------------------------------|----|---|---|
Db|-12-12-12-12--12-12-12-12--12-12-|-10-|-7-|-4-|x4
Ab|--8--8--8--8---8--8--8--8---8--8-|--6-|-3-|-0-|
Db|--8--8--8--8---8--8--8--8---8--8-|--6-|-3-|-0-|

Interlude:
Eb|------------------------------|----------------------------|
Bb|------------------------------|----------------------------|
Gb|------------------------------|----------------------------|
Db|-12p10h12~-0h7h9h10-0-12p10p0-|-12p10p0-0h7h9h10-0-12p10p0-|
Ab|------------------------------|----------------------------|
Db|------------------------------|----------------------------|

Eb|----------------------------|--------------------------------|
Bb|----------------------------|--------------------------------|
Gb|----------------------------|--------------------------------|
Db|-12p10p0-0h7h9h10-0-12p10p0-|-12p10p0-0h7h9h10-13-14-15-16-17|
Ab|----------------------------|--------------------------------|
Db|----------------------------|--------------------------------|

Eb|----------------------------|----------------------------|
Bb|----------------------------|----------------------------|
Gb|----------------------------|----------------------------|
Db|-12p10p0-0h7h9h10-0-12p10p0-|-12p10p0-0h7h9h10-0-12p10p0-|
Ab|----------------------------|----------------------------|
Db|----------------------------|----------------------------|

Eb|----------------------------|------------------------------------|
Bb|----------------------------|------------------------------------|
Gb|----------------------------|------------------------------------|
Db|-12p10p0-0h7h9h10-0-12p10p0-|-12p10p0-0h7h9h10-13-14-15-16-17-18-|
Ab|----------------------------|---------------------------------17-|
Db|----------------------------|----------------------------------0-|

[Drums]

"Underground, is where we come from..."
Eb|------------------------------|------------------------------|
Bb|------------------------------|------------------------------|
Gb|------------------------------|------------------------------|
Db|------------------------------|------------------------------|
Ab|------------------------------|------------------------------|
Db|-12-12-12-0--12-12-12-0--12-0-|-12-12-12-0--12-12-12-0--12-0-|

Eb|------------------------------|----------------------------|
Bb|------------------------------|----------------------------|
Gb|------------------------------|----------------------------|
Db|------------------------------|-------------------------11-|x4
Ab|------------------------------|----------------------------|
Db|-12-12-12-0--12-12-12-0--12-0-|-12-12-12-0--12-12-12-0--11-|

"kills me..."
Eb|--------------------------------------------|
Bb|--------------------------------------------|
Gb|--------------------------------------------|
Db|--------------------------------------------|
Ab|--------------------------------------------|
Db|-0-0-0-0-0--0-0-0-0-0--0-0-0-0-0--0-0-0-0-0-|

"I can't stand it..."
Eb|------------------------|------------------------|
Bb|------------------------|------------------------|
Gb|------------------------|------------------------|
Db|-3-3-3--3-3--3-3-3--3-3-|-0-0-0--0-0--0-0-0--0-0-|x3
Ab|-3-3-3--3-3--3-3-3--3-3-|-0-0-0--0-0--0-0-0--0-0-|
Eb|-3-3-3--3-3--3-3-3--3-3-|-0-0-0--0-0--0-0-0--0-0-|

Eb|-------0--------0-|-------0----0---|
Bb|-------0--------0-|-------0----0---|
Gb|-------0--------0-|-------0----0---|
Db|-3-3-3-0--3-3-3-0-|-0-0-0-0--0-0-0-|
Ab|-3-3-3----3-3-3---|-0-0-0----0---0-|
Db|-3-3-3----3-3-3---|-0-0-0----0---0-|

note:when repeating this, don't repeat the first bar
Eb|-------------|
Bb|-------------|
Gb|-------------|
Db|-15-15-15-15-|
Ab|-12-12-12-12-|
Db|-12-12-12-12-|

Eb|-------------|-------------|--------|
Bb|-------------|-------------|--------|
Gb|-------------|-------------|--------|
Db|-15-15-15-14-|-14-14-14-11-|-14--15-|x4
Ab|-12-12-12-12-|-12-12-12--7-|-12--12-|
Db|-12-12-12-11-|-11-11-11--7-|-11--12-|

"Hows about you come down and I'll explain..."
note:exact strumming is not shown
Eb|---------------------|------------------------------|
Bb|---------------------|------------------------------|
Gb|---------------------|------------------------------|
Db|-15-1515151515151515-|-15-15-15-14-1414141414141414-|
Ab|-12-1212121212121212-|-12-12-12-12-1212121212121212-|
Db|-12------------------|-12-12-12-11------------------|

Eb|----------------------------------|
Bb|----------------------------------|
Gb|----------------------------------|
Db|-14-14-14-11-11111111-14-14141414-|x3
Ab|-12-12-12--7--7-7-7-7-12-12121212-|
Db|-11-11-11--7----------11----------|

Eb|---------------------|------------------------------|
Bb|---------------------|------------------------------|
Gb|---------------------|------------------------------|
Db|-15-1515151515151515-|-15-15-15-14-1414141414141414-|
Ab|-12-1212121212121212-|-12-12-12-12-1212121212121212-|
Db|-12------------------|-12-12-12-11------------------|

Eb|---------------------------0--|
Bb|---------------------------0--|
Gb|---------------------------0--|
Db|-14-14-14-11-------5---7---8--|
Ab|-12-12-12--7-0-0-0-5-0-7-0-8--|
Db|-11-11-11--7-0-0-0-5-0-7-0-8--|
                . . .   .   .

"I'd like a job in, which I am able to put shoes on my feet..."
note:repeat strumming pattern
Eb|---------------------------------|----|---|---|
Bb|---------------------------------|----|---|---|
Gb|---------------------------------|----|---|---|
Db|-12-12-12-12--12-12-12-12--12-12-|-10-|-7-|-4-|x3
Ab|--8--8--8--8---8--8--8--8---8--8-|--6-|-3-|-0-|
Db|--8--8--8--8---8--8--8--8---8--8-|--6-|-3-|-0-|

"And if you think it's so, so..."
Eb|-------------|-------------|---------|---------|
Bb|-------------|-------------|---------|---------|
Gb|-------------|-------------|---------|---------|
Db|-12-12-12-12-|-10-10-10-10-|-7-7-7-7-|-4-4-4-4-|x2
Ab|--8--8--8--8-|--6--6--6--6-|-3-3-3-3-|-0-0-0-0-|
Db|--8--8--8--8-|--6--6--6--6-|-3-3-3-3-|-0-0-0-0-|

"This thing will work itself out..."
Eb|---------|---------|---------|---------|
Bb|---------|---------|---------|---------|
Gb|---------|---------|---------|---------|
Db|---------|---------|---------|---------|
Ab|---------|---------|---------|---------|
Db|-8-8-8-8-|-6-6-6-6-|-3-3-3-3-|-0-0-0-0-|

Eb|-------0-|-------0-|-------0-|-------0-|
Bb|-------0-|-------0-|-------0-|-------0-|
Gb|-------0-|-------0-|-------0-|-------0-|
Db|-------0-|-------0-|-------0-|-------0-|
Ab|---------|---------|---------|---------|
Db|-8-8-8---|-6-6-6---|-3-3-3---|-0-0-0---|

Eb|-------0-|-------0-|-------0-|-------2-|
Bb|------0--|------0--|------0--|------0--|
Gb|-----0---|-----0---|-----0---|-----0---|
Db|---------|---------|---------|---------|x2
Ab|---------|---------|------11-|---------|
Db|-8-8-----|-6-6-----|-3-3-----|-0-0-----|

"Out.."
Eb|---------|
Bb|---------|
Gb|---------|
Db|-0-0-0-0-|x4
Ab|-0-0-0-0-|
Db|-0-0-0-0-|

Eb|-------------|---------|---------|---------|
Bb|-------------|---------|---------|---------|
Gb|-------------|---------|---------|---------|
Db|-10-10-10-10-|-9-9-9-9-|-5-5-5-5-|-7-7-7-7-|
Ab|--7--7--7--7-|-5-5-5-5-|-2-2-2-2-|-3-3-3-3-|
Db|--7--7--7--7-|-5-5-5-5-|-2-2-2-2-|-3-3-3-3-|

Eb|-------------|---------|---------|---------|
Bb|-------------|---------|---------|---------|
Gb|-------------|---------|---------|---------|
Db|-10-10-10-10-|-9-9-9-9-|-5-5-5-5-|-5-5-5-5-|
Ab|--7--7--7--7-|-5-5-5-5-|-2-2-2-2-|-3-3-3-3-|
Db|--7--7--7--7-|-5-5-5-5-|-2-2-2-2-|-3-3-3-3-|

"Guitarist and songwriter..."
[Bass]

"But these here Helmet rip-offs..."
Eb|----------------------|-----------------------|
Bb|----------------------|-----------------------|
Gb|----------------------|-----------------------|
Db|----------------------|-----------------------|
Ab|-15--15\14--14\10--12-|-15-17-14-15-10--10-12-|
Db|-14--14\12--12\-9--10-|-14----12-----9---9-10-|

"And I won't bother to make my music..."
Eb|-------------|---------|---------|---------|
Bb|-------------|---------|---------|---------|
Gb|-------------|---------|---------|---------|
Db|-10-10-10-10-|-9-9-9-9-|-5-5-5-5-|-7-7-7-7-|
Ab|--7--7--7--7-|-5-5-5-5-|-2-2-2-2-|-3-3-3-3-|
Db|--7--7--7--7-|-5-5-5-5-|-2-2-2-2-|-3-3-3-3-|

Eb|-------------|---------|---------|---------|
Bb|-------------|---------|---------|---------|
Gb|-------------|---------|---------|---------|
Db|-10-10-10-10-|-9-9-9-9-|-5-5-5-5-|-5-5-5-5-|x4
Ab|--7--7--7--7-|-5-5-5-5-|-2-2-2-2-|-3-3-3-3-|
Db|--7--7--7--7-|-5-5-5-5-|-2-2-2-2-|-3-3-3-3-|

"Sure..."
Eb|---------------------------|
Bb|---------------------------|
Gb|---------------------------|
Db|-0-0-00-33-3-9-9-99-9-9-5--|x2
Ab|-0-0-00-33-3-5-5-55-5-5-2--|
Db|-0-0-00-33-3-5-5-55-5-5-2--|

note:the frets are 15,14,10,12 and are played quickly
Eb|-----------------------------------------------|
Bb|-----------------------------------------------|
Gb|-----------------------------------------------|
Db|-0--15151515-14141414-10101010-12121212--------|x2
Ab|-0---------------------------------------------|
Db|-0--15151515-14141414-10101010-12121212--15b17-|

"And I won't bother, to make my music..."
Eb|-------------|---------|---------|---------|
Bb|-------------|---------|---------|---------|
Gb|-------------|---------|---------|---------|
Db|-10-10-10-10-|-9-9-9-9-|-5-5-5-5-|-5-5-5-5-|x2
Ab|--7--7--7--7-|-5-5-5-5-|-2-2-2-2-|-3-3-3-3-|
Db|--7--7--7--7-|-5-5-5-5-|-2-2-2-2-|-3-3-3-3-|

note:just do the chord shapes from before and sort of improvise, don't be too exact
"Sure..."
Eb|--------------------------|
Bb|--------------------------|
Gb|--------------------------|
Db|---------------------9--5-|x2
Ab|-0-0-00-33-3-3-5-5-5-5--2-|
Db|-0-0-00-33-3-3-5-5-5-5--2-|

And that's it!

XD
Tap to rate this tab
 
# A B C D E F G H I J K L M N O P Q R S T U V W X Y Z