Guitaretab - guitar tabs
Song name
# A B C D E F G H I J K L M N O P Q R S T U V W X Y Z

Reuben - Alpha Signal 3 tab

Artist/Band - Reuben
Album - Very Fast Very Dangerous
Song - Alpha Signal Three


Tuning: C# G# C# F# A# D#

Key:
~ = Let Note Ring
/ = Slide Upwards
\ = Slide Downwards


Intro:
(Some random notes. I dunno what they are.)

D#]------------------------------------------------------------|
A#]------------------------------------------------------------|
F#]------------------------------------------------------------|
C#]------------------------------------------------------------| x2
G#]------------------------------------------------------------|
C#]--0-0-0-0--0-0-0--0-0-0--0-6----0-0-0-0--0-0-0--0-0-0--0-5--|


Verse 1:
D#]------------------------------------------------------------|
A#]------------------------------------------------------------|
F#]------------------------------------------------------------|
C#]------------------------------------------------------------| x4
G#]------------------------------------------------------------|
C#]--0-0-0-0--0-0-0--0-0-0--0-6----0-0-0-0--0-0-0--0-0-0--0-5--|


Chorus:
D#]--------------------------------------|
A#]--------------------------------------|
F#]--------------------------------------|
C#]--8-8-7~---5-5-4~---8-8--7-7--5-5-4~--| x2
G#]--8-8-7~---5-5-4~---8-8--7-7--5-5-4~--|
C#]--8-8-7~---5-5-4~---8-8--7-7--5-5-4~--|

"Well, I guess I loved her..."

D#]--------------|
A#]--------------|
F#]--------------|
C#]--------------|
G#]--0-0-0-0--0--|
C#]--0-0-0-0--0--|


Interlude:
D#]--------------------------------------------------------------|
A#]--------------------------------------------------------------|
F#]--------------------------------------------------------------|
C#]--------------------------------------------------------------| x2
G#]--------------------------------------------------------------|
C#]--0-0-0-0--0-0-0--0-0-0-0-0-6----0-0-0-0--0-0-0--0-0-0-0-0-5--|

(Random notes are played again)


Verse 2:                                             x4
D#]----------------------------------------------------|
A#]----------------------------------------------------|
F#]----------------------------------------------------|
C#]--15-15-15-15-15-15-15-15--13-13-13-13-13-13-13-13--|
G#]----------------------------------------------------|
C#]----------------------------------------------------|
[ Tab from: http://www.guitaretab.com/r/reuben/78627.html ]
D#]------------------------------------|
A#]------------------------------------|
F#]------------------------------------|
C#]--5-5-5-5-5-5-5-5--3-3-3-3-3-3-3-3--|
G#]------------------------------------|
C#]------------------------------------|


Pre-Chorus:
D#]----------------------------------------------|
A#]----------------------------------------------|
F#]----------------------------------------------|
C#]--0-0--0-0-0------0-0--0-0-0------0-0--0-0-0--|
G#]--0-0--0-0-0------0-0--0-0-0------0-0--0-0-0--|
C#]--0-0--0-0-0------0-0--0-0-0------0-0--0-0-0--|

D#]-----------------------------------------|
A#]-----------------------------------------|
F#]-----------------------------------------|
C#]--0-0--3-3--2-2--5-5--4-4--7-7--6-6--9~--|
G#]--0-0--3-3--2-2--5-5--4-4--7-7--6-6--9~--|
C#]--0-0--3-3--2-2--5-5--4-4--7-7--6-6--9~--|


Chorus:
D#]--------------------------------------|
A#]--------------------------------------|
F#]--------------------------------------|
C#]--8-8-7~---5-5-4~---8-8--7-7--5-5-4~--| x2
G#]--8-8-7~---5-5-4~---8-8--7-7--5-5-4~--|
C#]--8-8-7~---5-5-4~---8-8--7-7--5-5-4~--|

"Well, I guess I loved her..."

D#]---------------|
A#]---------------|
F#]---------------|
C#]-----------8\--|
G#]--0-0-0-0--8\--|
C#]--0-0-0-0--8\--|

(Bass on it's own, then what sounds like a C major chord is played.)

(I dunno what the few random notes before he sings again are.)

"She took my shoes off."


Solo fill:
D#]------------------------------------------------------|
A#]------------------------------------------------------|
F#]--12/15-9--8-7-8-12-5-3-3---12/15-9--8-7-11-16-18-18--|
C#]------------------------------------------------------|
G#]------------------------------------------------------|
C#]------------------------------------------------------|

(Dunno the next bit of it.)


Bridge:
D#]-------------------------------|
A#]-------------------------------|
F#]--7--7-7-----------------------|
C#]--7--7-7-6--6-6-9--9-9-4--4-4--| x4
G#]--5--5-5-6--6-6-9--9-9-4--4-4--|
C#]---------6--6-6-9--9-9-4--4-4--|


Outro:
D#]----------------------------------------------------|
A#]----------------------------------------------------|
F#]----------------------------------------------------|
C#]----------------------------------------------------| x2
G#]----------------------------------------------------|
C#]--0-0--0-0-0-0--0-0--0-6----0-0--0-0-0-0--0-0--0-5--|

D#]----------------------------------------------------------|
A#]----------------------------------------------------------|
F#]----------------------------------------------------------|
C#]----------------------------------------------------------| x2
G#]----------------------------------------------------------|
C#]--0-0-0-0-0--0-0-0-0-0--0-6----0-0-0-0-0--0-0-0-0-0--0-6--|
Related for Alpha Signal 3 tab
Advertisement will be closed in 10 seconds