Guitaretab - guitar tabs
Song name
# A B C D E F G H I J K L M N O P Q R S T U V W X Y Z

Reuben - Parties Break Hearts tab

ARTIST/BAND: Reuben
SONG: Parties Break Hearts
RELEASED ON: Racecar Is Racecar Backwards 
GUITARIST: Jamie Lenman
TABBED BY: Aiden

TUNING: C# G# C# F# Bb C#

 
INTRO:
D#]--------------------------------------|
Bb]--------------------------------------|
F#]--------------------------------------|
C#]--4-4-0-0-9-10-9-10--4-4-0-0----7--7--| x 3
G#]--4-4-0-0-9-10-9-10--4-4-0-0----6--6--|
C#]--4-4-0-0-9-10-9-10--4-4-0-0----7--7--|
 
D#]--------------------------------------|
Bb]--------------------------------------|
F#]--------------------------------------|
C#]-4-4-0-0-9-10-9-10--4-4-0-0-9-10-17/--|
G#]-4-4-0-0-9-10-9-10--4-4-0-0-9-10-17/--|
C#]-4-4-0-0-9-10-9-10--4-4-0-0-9-10-17/--|
 
VERSE:
"I’ve got the situation under control."
D#]----------------------------------------|
Bb]----------------------------------------|
F#]----------------------------------------|
C#]--4-4-0-0-9-10-9-10--4-4-0-0-9-10-9-10--| x 3
G#]--4-4-0-0-9-10-9-10--4-4-0-0-9-10-9-10--|
C#]--4-4-0-0-9-10-9-10--4-4-0-0-9-10-9-10--|
 
D#]------------------------------------|
Bb]------------------------------------|
F#]------------------------------------|
C#]--4-4-0-0-9-10-9-10--4-4-0-0-0-0-0--|
G#]--4-4-0-0-9-10-9-10--4-4-0-0-0-0-0--|
C#]--4-4-0-0-9-10-9-10--4-4-0-0-0-0-0--|
PM                              . . .

CHORUS:
"And the word on everyone’s lips..."
D#]-----------------|
Bb]-----------------|
F#]--10------10-----|
C#]--10------10--3--| x 3
G#]---8-------7--3--|
C#]---8-------7--3--|

D#]--------------------------------------------------|
Bb]--------------------------------------------------|
F#]--10------10--------------------------------------|
C#]--10------10--3--6-6-6-6-6-6-6-6-6-6-6-6-6-6-6-6--|
G#]---8-------7--3--6-6-6-6-6-6-6-6-6-6-6-6-6-6-6-6--|
C#]---8-------7--3--6-6-6-6-6-6-6-6-6-6-6-6-6-6-6-6--|
 
VERSE:
"I like to hustle..."
D#]--------------------------------------|
Bb]--------------------------------------|
F#]--------------------------------------|
C#]--4-4-0-0-9-10-9-10--4-4-0-0----7--7--| x 3
G#]--4-4-0-0-9-10-9-10--4-4-0-0----6--6--|
C#]--4-4-0-0-9-10-9-10--4-4-0-0----7--7--| 
 
D#]----------------------------------------|
Bb]----------------------------------------|
F#]----------------------------------------|
C#]--4-4-0-0-9-10-9-10--4-4-0-0-9-10-9-10--|
G#]--4-4-0-0-9-10-9-10--4-4-0-0-9-10-9-10--|
C#]--4-4-0-0-9-10-9-10--4-4-0-0-9-10-9-10--|
 
"I'll take you down with me right after the show..."
D#]-------------------------------------------------------|
Bb]-------------------------------------------------------|
F#]-------------------------------------------------------|
C#]--12--12--12-12--------12--12--12-12--------17/-0-0-0--|
G#]--12--12--12-12--------12--12--12-12--------17/-0-0-0--|
C#]--12--12--12-12--------12--12--12-12--------17/-0-0-0--|
PM                                                 . . .

CHORUS:
"And the word on everyone's lips..."
D#]------------------------------------------|
Bb]------------------------------------------|
F#]--10-10-10-10-10-10-10---10-10-10---------|
C#]--10-10-10-10-10-10-10---10-10-10--3-3-3--| x 2
G#]---8--8--8--8--8--8--8----7--7--7--3-3-3--|
C#]---8--8--8--8--8--8--8----7--7--7--3-3-3--|
[ Tab from: http://www.guitaretab.com/r/reuben/83117.html ]
D#]-------------------------------------------------------------------------|
Bb]-------------------------------------------------------------------------|
F#]--10-10-10-10-10-10-10---10-10-10----------------------------------------|
C#]--10-10-10-10-10-10-10---10-10-10--3-3-3—-6-6-6-6-6-6-6-6-6-6-6-6-6-6-6--|
G#]---8--8--8--8--8--8--8----7--7--7--3-3-3—-6-6-6-6-6-6-6-6-6-6-6-6-6-6-6--|
C#]---8--8--8--8--8--8--8----7--7--7--3-3-3--6-6-6-6-6-6-6-6-6-6-6-6-6-6-6--|

D#]-----------------------------------|
Bb]-----------------------------------|
F#]-----------------------------------|
C#]--6-6-6-6-6-6-6-6-6-6-6-6-6-6-6-6--|
G#]--6-6-6-6-6-6-6-6-6-6-6-6-6-6-6-6--|
C#]--6-6-6-6-6-6-6-6-6-6-6-6-6-6-6-6--|
PM     . . . . . . . . . . . . . . .

BRIDGE:
D#]-----------------------------------------|
Bb]-----------------------------------------|
F#]-----------------------------------------|
C#]--0--------------------------------7--7--|
G#]--0--------------------------------3--3--|
C#]--0--------------------------------3--3--| 



"Stay awake, that's all I ever do..."
D#]--------------------------------------|
Bb]--------------------------------------|
F#]--------------------------------------|
C#]--0--0---------------------0-3-0-3-0--|
G#]--0--0-12--12-12-12--12-12-0-3-0-3-0--|
C#]--0--0-10--10-10--9---9--9-0-3-0-3-0--|
 
"Yeah, I'm watching you...       PARTY!"
D#]------------------------------------|
Bb]------------------------------------|
F#]------------------------------------|
C#]--0--0-------------------------<4>--|
G#]--0--0-12--12-12-12--12-12----------|
C#]--0--0-10--10-10--9---9--9----------|
 
SOLO:
(He plays each chord here loads, except the fourth one, so just play as needed.)
D#]-------------------------------------------------------|
Bb]--------------------------------------------------19b--|
F#]--11-------7-------5-------4---17-------19-------------|
C#]---x-------x-------x-------x----x--------x--------16---|
G#]---9->->->-5->->->-3->->->-2---15->->->-17->->->-------|
C#]-------------------------------------------------------|

CHORUS
D#]------------------------------------------|
Bb]------------------------------------------|
F#]--10-10-10-10-10-10-10---10-10-10---------|
C#]--10-10-10-10-10-10-10---10-10-10--3-3-3--| x 2
G#]---8--8--8--8--8--8--8----7--7--7--3-3-3--|
C#]---8--8--8--8--8--8--8----7--7--7--3-3-3--|

D#]-------------------------------------------------------------------------|
Bb]-------------------------------------------------------------------------|
F#]--10-10-10-10-10-10-10---10-10-10----------------------------------------|
C#]--10-10-10-10-10-10-10---10-10-10--3-3-3—-6-6-6-6-6-6-6-6-6-6-6-6-6-6-6--|
G#]---8--8--8--8--8--8--8----7--7--7--3-3-3—-6-6-6-6-6-6-6-6-6-6-6-6-6-6-6--|
C#]---8--8--8--8--8--8--8----7--7--7--3-3-3--6-6-6-6-6-6-6-6-6-6-6-6-6-6-6--|

D#]-------------------------------------------------|
Bb]-------------------------------------------------|
F#]---------10-10-10-10-10-10-10---10-10-10---------|
C#]—-0-0-0--10-10-10-10-10-10-10---10-10-10--3-3-3--|
G#]--0-0-0---8--8--8--8--8--8--8----7--7--7--3-3-3--|
C#]--0-0-0---8--8--8--8--8--8--8----7--7--7--3-3-3--|
PM   . . .

D#]------------------------------------------|
Bb]------------------------------------------|
F#]--10-10-10-10-10-10-10---10-10-10---------|
C#]--10-10-10-10-10-10-10---10-10-10--3-3-3--|
G#]---8--8--8--8--8--8--8----7--7--7--3-3-3--|
C#]---8--8--8--8--8--8--8----7--7--7--3-3-3--|

D#]----------------------------------------------|
Bb]----------------------------------------------|
F#]--10-10-10-10-10-10-10---10-10-10-------------|
C#]--10-10-10-10-10-10-10---10-10-10--3-3-3--6~--|
G#]---8--8--8--8--8--8--8----7--7--7--3-3-3--6~--|
C#]---8--8--8--8--8--8--8----7--7--7--3-3-3--6~--|
Related for Parties Break Hearts tab
Advertisement will be closed in 10 seconds