Song name
# A B C D E F G H I J K L M N O P Q R S T U V W X Y Z

Reuben - Best Enemies tab

INTRO

Eb|------------------|----------------||
Bb|---------------3h5|----------------||
Gb|-5--5--5--5-4h5---|-5--5--5--5-----||
Db|--5--5--5---------|--5--5--5---4-4-|| x 4
Ab|0--0--0--0-0------|0--0--0--0-0-0-0||
Db|------------------|----------------||

VERSE

Eb|----------------|----------------|----------------|----------------||
Bb|----------------|----------------|----------------|----------------||
Gb|--5---5---5---5-|--5---5---5---5-|--5---5---5---5-|--5---5---5---5-||
Db|--5---5---5---4-|--5---5---5---4-|--5---5---5---4-|--5---5---5---4-|| x 2
Ab|00--00--00--00--|00--00--00--00--|00--00--00--00--|00--00--00--00--||
Db|----------------|----------------|----------------|----------------||
 PM..  ..  ..  ..   ..  ..  ..  ..   ..  ..  ..  ..   ..  ..  ..  ..

Well yes, you are contented,
What more could you want?

Eb|----------------|----------------|----------------|----------------||
Bb|----------------|----------------|----------------|----------------||
Gb|--0---0---0---0-|--0---0---0---0-|--0---0---0---0-|--0---0---0---0-||
Db|--3---3---3---3-|--3---3---3---3-|--3---3---3---3-|--3---3---3---3-|| x 2
Ab|00--00--00--00--|00--00--00--00--|00--00--00--00--|00--00--00--00--||
Db|----------------|----------------|----------------|----------------||
 PM..  ..  ..  ..   ..  ..  ..  ..   ..  ..  ..  ..   ..  ..  ..  ..

You fight, but you always make it up...

Eb|------------------|----------------||
Bb|---------------3h5|----------------||
Gb|-5--5--5--5-4h5---|-5--5--5--5-----||
Db|--5--5--5---------|--5--5--5---4-4-|| x 4
Ab|0--0--0--0-0------|0--0--0--0-0-0-0||
Db|------------------|----------------||

That's love, 
Chasing its tail.

CHORUS

Eb|----------------|----------------|----------------|----------------||
Bb|----------------|----------------|----------------|----------------||
Gb|5---------------|5---------------|5---------------|5-------5-------||
Db|5---------------|5---------------|5---------------|5-------5-------||
Ab|3---------------|3---------------|0---------------|----------------||
Db|----------------|----------------|----------------|5-------3-------||

Look at how she holds his hand, and she whispers to him, kiss her now, 
And when she pulls away, she's got his heart hanging from her mouth.

Eb|----------------|----------------|0---------------|----------------||
Bb|----------------|----------------|0---------------|----------------||
Gb|5---------------|2---------------|5---------------|10--------------||
Db|5---------------|5---------------|5---------------|10--------------||
Ab|3---------------|3---------------|0---------------|8---------------||
Db|----------------|----------------|----------------|8---------------||

Phonecalls and accusations, and a bad feeling all year round, 
Gutless and co-dependent, they're the best enemies in town

Eb|----------------|1---------------||
Bb|----------------|3---------------||
Gb|3---------------|3---------------||
Db|1---------------|1---------------||
Ab|1---------------|1---------------||
Db|1---------------|1---------------||

The best enemies in town,
The best enemies in town...

VERSE 2

Eb|------------------|----------------||
Bb|---------------3h5|----------------||
Gb|-5--5--5--5-4h5---|-5--5--5--5-----||
Db|--5--5--5---------|--5--5--5---4-4-|| x 2
Ab|0--0--0--0-0------|0--0--0--0-0-0-0||
Db|------------------|----------------||

Eb|----------------|----------------||
Bb|----------------|----------------||
Gb|----------------|----------------||
Db|77--77--77--77--|88--88--88--88--||
Ab|77--77--77--77--|77--77--77--77--||
Db|77--77--77--77--|88--88--88--88--||

The silence, you hate it,
Hearts should come armour-plated,

Eb|----------------|----------------||
Bb|----------------|----------------||
Gb|----------------|----------------||
Db|77557755775575-5|77557755775575--||
Ab|77557755775575-5|77557755775575--||
Db|77557755775575-5|77557755775575--||

Eb|----------------|----------------||
Bb|----------------|----------------||
Gb|----------------|----------------||
Db|77--77--77--77--|88--88--3-------||
Ab|77--77--77--77--|77--77--3-------||
Db|77--77--77--77--|88--88--3-------||

Violins, they play for you and me and for her...

Eb|----------------|----------------||
Bb|----------------|----------------||
Gb|----------------|----------------||
Db|77557755775575-5|77557755775575--||
Ab|77557755775575-5|77557755775575--||
Db|77557755775575-5|77557755775575--||

Eb|----------------|----------------||
Bb|----------------|----------------||
Gb|----------------|----------------||
Db|77--77--77--77--|88--88--88--88--||
Ab|77--77--77--77--|77--77--77--77--||
Db|77--77--77--77--|88--88--88--88--||

With clear minds, and wide eyes
We make the best decisions, 

Eb|----------------|----------------||
Bb|----------------|----------------||
Gb|----------------|----------------||
Db|3---------------|3333333333333333||
Ab|3---------------|3333333333333333||
Db|3---------------|3333333333333333||

Oh...
Just let it go...

CHORUS 2

Eb|----------------|----------------|----------------|----------------||
Bb|----------------|----------------|----------------|----------------||
Gb|5------------5--|5-------------5-|5-------------5-|5-----5-5-------||
Db|5------------5--|5-------------5-|5-------------5-|5-----5-5-------||
Ab|3------------3--|3-------------3-|0-------------0-|----------------||
Db|----------------|----------------|----------------|5-----3-3-------||

Now the tears come easily, and she promises to change her ways
But it's not about what you do, 
It's who you are that matters these days.

Eb|----------------|----------------|0---------------|----------------||
Bb|----------------|----------------|0------------00-|----------------||
Gb|5-------------5-|2-------------2-|5------------55-|10--------------||
Db|5-------------5-|5-------------5-|5------------55-|10--------------||
Ab|3-------------3-|3-------------3-|0------------00-|8---------------||
Db|----------------|----------------|----------------|8---------------||

After months of rehearsals and bad excuses, the moment to leave is now
So death to contentedness, you were the best enemies in town

Eb|----------------|----------------||
Bb|----------------|----------------||
Gb|----------------|121212121212----||
Db|5555555555555555|1010101010103335||
Ab|1111111111111333|1010101010103335||
Db|1111111111111333|1010101010103335||

The best enemies in town, 
The best enemies in town

Eb|----------------|----------------||
Bb|----------------|----------------||
Gb|----------------|1212121212121212||
Db|5555555555555555|1010101010101010||
Ab|1111111111111333|1010101010101010||
Db|1111111111111333|1010101010101010||

The best enemies, 
So here's to the best enemies in town

Eb|-------------------|----------------||
Bb|-------------------|----------------||
Gb|8888888888888101010|5555555555555555||
Db|xxxxxxxxxxxxxx-x-x-|xxxxxxxxxxxxxxxx||
Ab|66666666666668-8-8-|3333333333333333||
Db|-------------------|----------------||

Eb|-------------------|----------------||
Bb|8888888888888101010|5555555555555555||
Gb|8888888888888101010|5555555555555555||
Db|xxxxxxxxxxxxxx-x-x-|xxxxxxxxxxxxxxxx||
Ab|66666666666668-8-8-|3333333333333333||
Db|-------------------|----------------||

Eb|-----------------|-------------------||
Bb|-----------------|-------------------||
Gb|-----------------|-------------------||
Db|1-1-1-1-1-1-1-111|1-1-1-1-1-1-111-111|| x 2
Ab|1-1-1-1-1-1-1-111|1-1-1-1-1-1-111-111||
Db|1-1-1-1-1-1-1-111|1-1-1-1-1-1-111-111||

Where will i find love now?
Who will accept me now?
They all cried for Chairman Mao, 
They all cried for Chairman Mao.

Eb|-------0--------||
Bb|-------0--------||
Gb|-------5--------||
Db|-------5--------||
Ab|-------0--------||
Db|----------------||

Tap to rate this tab
# A B C D E F G H I J K L M N O P Q R S T U V W X Y Z