Song name
# A B C D E F G H I J K L M N O P Q R S T U V W X Y Z

Reuben - Doll Fin tab

ARTIST/BAND - Reuben
ALBUM - N/A (B-side from 'Stuck In My Throat' Single)
SONG - Doll Fin
TUNING - Drop D (D A D G B E)
GUITARIST - Jamie Lenman

KEY:
x  = Mute String
x\ = Pick Slide
b  = Bend String
p  = Pull-off
~  = Let note ring
[] = Pinch Harmonic



Intro:
E]---------------------------------|
B]---------------------------------|
G]---------------------------------|
D]------------------------------0--| x4
A]--------3-----------3-----3------|
D]--3-0-0---0-0-3-0-0---0-0---0----|


Verse 1:
"Spread my arms, and now take flight..."
E]----------------------------|    |----------------------------|
B]----------------------------|    |----------------------------|
G]----------------------------|    |----------------------------|
D]--0-0-0-0--6--6-6--6-6-6-6--| x3 |--6-5-5--3-5-6--3--3-3-3-3--|
A]--0-0-0-0--6--6-6--6-6-6-6--|    |--6-5-5--3-5-6--3--3-3-3-3--|
D]--0-0-0-0--6--6-6--6-6-6-6--|    |--6-5-5--3-5-6--3--3-3-3-3--|

E]------------------------------------------------------|
B]------------------------------------------------------|
G]------------------------------------------------------|
D]--0-0-0-0--6--6-6--6-6-6-6--0-0-0-0--3--3-3--3-0-3-5--|
A]--0-0-0-0--6--6-6--6-6-6-6--0-0-0-0--3--3-3--3-0-3-5--|
D]--0-0-0-0--6--6-6--6-6-6-6--0-0-0-0--3--3-3--3-0-3-5--|

E]----------------------------|
B]----------------------------|
G]----------------------------|
D]--0-0-0-0--6--6-6--6-6-6-6--|
A]--0-0-0-0--6--6-6--6-6-6-6--|
D]--0-0-0-0--6--6-6--6-6-6-6--|

"This misery without a name..."
E]----------------------------|    |----------------------------|
B]----------------------------|    |----------------------------|
G]----------------------------|    |----------------------------|
D]--6-5-5--3-5-6--1--1-1-1-1--| x3 |--6-5-5--3-5-6--1--x-x-x-x--|
A]--6-5-5--3-5-6--1--1-1-1-1--|    |--6-5-5--3-5-6--1--x-x-x-x--|
D]--6-5-5--3-5-6--1--1-1-1-1--|    |--6-5-5--3-5-6--1--x-x-x-x--|


Interlude:
E]-------------------------|
B]-------------------------|
G]-------------------------|
D]--4-0--0-3-4-0-----------| x4
A]--4-0--0-3-4-0-----------|
D]--4-0--0-3-4-0--0-2b3p0--|


Verse 2:
"All these amphetamines running through my veins.
And I am lucky I don't drown."
E]------|
B]------|
G]------|
D]--x\--|
A]--x\--|
D]--x\--|


Chorus:
"Damn your eyes."
E]---------------------------------|    |-----------------------------------|
B]---------------------------------|    |-----------------------------------|
G]--------5-----------5-----5------|    |--------5-----------5--------------|
D]--3-0-0-5-0-0-3-0-0-5-0-0-5-0-0--| x3 |--3-0-0-5-0-0-3-0-0-5-0-0-x-x-x-x--|
A]--3-0-0-3-0-0-3-0-0-3-0-0-3-0-0--|    |--3-0-0-3-0-0-3-0-0-3-0-0-x-x-x-x--|
D]--3-0-0---0-0-3-0-0---0-0---0-0--|    |--3-0-0---0-0-3-0-0---0-0-x-x-x-x--|


Verse 3:
"I have been the fall of kings..."
E]----------------------------|    |----------------------------|
B]----------------------------|    |----------------------------|
G]----------------------------|    |----------------------------|
D]--0-0-0-0--6--6-6--6-6-6-6--| x3 |--6-5-5--3-5-6--3--3-3-3-3--|
A]--0-0-0-0--6--6-6--6-6-6-6--|    |--6-5-5--3-5-6--3--3-3-3-3--|
D]--0-0-0-0--6--6-6--6-6-6-6--|    |--6-5-5--3-5-6--3--3-3-3-3--|

E]------------------------------------------------------|
B]------------------------------------------------------|
G]------------------------------------------------------|
D]--0-0-0-0--6--6-6--6-6-6-6--0-0-0-0--3--3-3--3-0-3-5--|
A]--0-0-0-0--6--6-6--6-6-6-6--0-0-0-0--3--3-3--3-0-3-5--|
D]--0-0-0-0--6--6-6--6-6-6-6--0-0-0-0--3--3-3--3-0-3-5--|

E]----------------------------|
B]----------------------------|
G]----------------------------|
D]--0-0-0-0--6--6-6--6-6-6-6--|
A]--0-0-0-0--6--6-6--6-6-6-6--|
D]--0-0-0-0--6--6-6--6-6-6-6--|

"This misery without a name..."
E]----------------------------|    |----------------------------|
B]----------------------------|    |----------------------------|
G]----------------------------|    |----------------------------|
D]--6-5-5--3-5-6--1--1-1-1-1--| x3 |--6-5-5--3-5-6--1--x-x-x-x--|
A]--6-5-5--3-5-6--1--1-1-1-1--|    |--6-5-5--3-5-6--1--x-x-x-x--|
D]--6-5-5--3-5-6--1--1-1-1-1--|    |--6-5-5--3-5-6--1--x-x-x-x--|


Interlude:
E]-------------------------|    |--------------0~--|
B]-------------------------|    |--------------4~--|
G]-------------------------|    |--------------3~--|
D]--4-0--0-3-4-0-----------| x3 |--4-0--0-3-4------|
A]--4-0--0-3-4-0-----------|    |--4-0--0-3-4------|
D]--4-0--0-3-4-0--0-2b3p0--|    |--4-0--0-3-4------|


Verse 4:
"I do not fear the change ripping through my system.
And I am always coming down."
E]----------------------------|
B]--6~-----6~-----6~----------|
G]--7~-----7~-----7~----------|
D]-----------------------[5]--|
A]----------------------------|
D]----------------------------|

Chorus:
"Damn your eyes."
E]---------------------------------|
B]---------------------------------|
G]--------5-----------5-----5------|
D]--3-0-0-5-0-0-3-0-0-5-0-0-5-0-0--| x4
A]--3-0-0-3-0-0-3-0-0-3-0-0-3-0-0--|
D]--3-0-0---0-0-3-0-0---0-0---0-0--| 


Bridge:
E]--------------------------------------------------------------|
B]--------------------------------------------------------------|
G]--------------------------------------------------------------|
D]--10--10-10-10--10-10-10-10-10-10--4-5-4-4---4-5-4-4---4-4-4--| x3
A]---8---8--8--8---8--8--8--8--8--8--0---0-0---0---0-0---0-0-0--|
D]---8---8--8--8---8--8--8--8--8--8--0---0-0---0---0-0---0-0-0--|

E]-----------------------------------|
B]-----------------------------------|
G]-----------------------------------|
D]--10--10-10-10--10-10-10-10-10-10--|
A]---8---8--8--8---8--8--8--8--8--8--|
D]---8---8--8--8---8--8--8--8--8--8--|

E]-----------------------------|
B]-----------------------------|
G]-----------------------------|
D]--4-5-4-4---4-5-4-4---4-4-4--| x4
A]--0---0-0---0---0-0---0-0-0--|
D]--0---0-0---0---0-0---0-0-0--|

E]-------------------|    |-------------|
B]-------------------|    |-------------|
G]-------------------|    |-------------|
D]--4-4---4-4---4-4--| x3 |--4-4---4-4--|
A]--0-0---0-0---0-0--|    |--0-0---0-0--|
D]--0-0---0-0---0-0--|    |--0-0---0-0--|


Guitar solo:
E]-----------------------|
B]--13--13--13--13--13---|
G]--15b-15b-15b-15b-15b--|
D]-----------------------|
A]-----------------------|
D]-----------------------|

E]-----------------------|
B]--10--10--10--10--10---|
G]--12b-12b-12b-12b-12b--|
D]-----------------------|
A]-----------------------|
D]-----------------------|

E]-----------------------|
B]---9---9---9---9---9---|
G]--11b-11b-11b-11b-11b--|
D]-----------------------|
A]-----------------------|
D]-----------------------|

E]-----------------------|
B]---8---8---8---8---8---|
G]--10b-10b-10b-10b-10b--|
D]-----------------------|
A]-----------------------|
D]-----------------------|

E]-------------------------------------------------------------------|
B]-------------------------------------------------------------------|
G]-5-5-5-5-5-5-5-5-5-5-5-5-6-6-6-6-----------------------------------|
D]-x-x-x-x-x-x-x-x-x-x-x-x-x-x-x-x--7-7-7-7-7-7-7-7-7-7-7-7-7-7-7-7--|
A]-3-3-3-3-3-3-3-3-3-3-3-3-4-4-4-4--x-x-x-x-x-x-x-x-x-x-x-x-x-x-x-x--|
D]----------------------------------5-5-5-5-5-5-5-5-5-5-5-5-5-5-5-5--|

E]-------------------------------------------------------------------|
B]-------------------------------------------------------------------|
G]-------------------------------------------------------------------|
D]--6-6-6-6-6-6-6-6-6-6-6-6-6-6-6-6--7-7-7-7-7-7-7-2-2-2-2b-0-1-1-1--|
A]--x-x-x-x-x-x-x-x-x-x-x-x-x-x-x-x--x-x-x-x-x-x-x-x-x-x----0-1-1-1--|
D]--4-4-4-4-4-4-4-4-4-4-4-4-4-4-4-4--5-5-5-5-5-5-5-2-2-2----0-1-1-1--|


Verse 3:
"Now what is this that melts my brain?"
E]----------------------------|    |----------------------------|
B]----------------------------|    |----------------------------|
G]----------------------------|    |----------------------------|
D]--0-0-0-0--6--6-6--6-6-6-6--| x3 |--6-5-5--3-5-6--3--3-3-3-3--|
A]--0-0-0-0--6--6-6--6-6-6-6--|    |--6-5-5--3-5-6--3--3-3-3-3--|
D]--0-0-0-0--6--6-6--6-6-6-6--|    |--6-5-5--3-5-6--3--3-3-3-3--|

E]------------------------------------------------------|
B]------------------------------------------------------|
G]------------------------------------------------------|
D]--0-0-0-0--6--6-6--6-6-6-6--0-0-0-0--3--3-3--3-0-3-5--|
A]--0-0-0-0--6--6-6--6-6-6-6--0-0-0-0--3--3-3--3-0-3-5--|
D]--0-0-0-0--6--6-6--6-6-6-6--0-0-0-0--3--3-3--3-0-3-5--|

E]----------------------------|
B]----------------------------|
G]----------------------------|
D]--0-0-0-0--6--6-6--6-6-6-6--|
A]--0-0-0-0--6--6-6--6-6-6-6--|
D]--0-0-0-0--6--6-6--6-6-6-6--|

"My misery without a name..."
E]----------------------------|    |----------------------------|
B]----------------------------|    |----------------------------|
G]----------------------------|    |----------------------------|
D]--6-5-5--3-5-6--1--1-1-1-1--| x3 |--6-5-5--3-5-6--1--x-x-x-x--|
A]--6-5-5--3-5-6--1--1-1-1-1--|    |--6-5-5--3-5-6--1--x-x-x-x--|
D]--6-5-5--3-5-6--1--1-1-1-1--|    |--6-5-5--3-5-6--1--x-x-x-x--|
Tap to rate this tab
 
# A B C D E F G H I J K L M N O P Q R S T U V W X Y Z