Song name
# A B C D E F G H I J K L M N O P Q R S T U V W X Y Z

Reuben - Three Hail Marys tab

ARTIST/BAND - Reuben
SONG - Three Hail Marys
ALBUM - In Nothing We Trust
GUITARIST - Jamie Lenman
TABBED BY - Liam Saxton (28/06/07)

TUNING - C# G# C# F# A# D#


'I am malaise...'
D#|------------------|
A#|------------------|
F#|--14--14--14--14--|   repeat
C#|------------------|
G#|------------------|
C#|------------------|

'I can't stand the weight...'
D#|--------------------------------------------------------------------------------------------|
A#|--------------------------------------------------------------------------------------------|
F#|--10--10--101010--10-10----9--9--999--9-9----12--12--121212--12-12----10--10--101010--10-9--|
C#|---x---x---x-x-x---x--x----x--x--xxx--x-x-----x---x---x-x-x---x--x-----x---x---x-x-x---x-x--| X 2
G#|---8---8---8-8-8---8--8----7--7--777--7-7----10--10--101010--10-10-----8---8---8-8-8---8-7--|
C#|--------------------------------------------------------------------------------------------|

'I am revolt...'
D#|-------------------------------------------------------------|
A#|-------------------------------------------------------------|
F#|-------------------------------------------------------------|
C#|-------------------------------------------------------------|
G#|-------------------------------------------------------------|
C#|--0-/12--0-10-13--0 /12--0-10-13-15-15--10-12--13-13--10-13--|

'I am a pain...'
D#|-----------------------------------------------------------|
A#|-----------------------------------------------------------|
F#|--11-11--9-12--11-11--11-12-14-14-14-15-14-12-12-12-14-12--| X 2
C#|---x--x--x--x---x--x---x--x--x--x--x--x--x--x--x--x--x--x--|
G#|---9--9--7-10---9--9---9-10-12-12-12-13-12-10-10-10-12-10--|
C#|-----------------------------------------------------------|

'I got hate...'
D#|--------------------     -----|
A#|--------------------     -----|
F#|-------------------- X 8 -----|
C#|--0-0-0-0-0-0-0-10--     --0--|
G#|--0-0-0-0-0-0-0-10--     --0--|
C#|--0-0-0-0-0-0-0-10--     --0--|
PM   . . . . . . .  .

'I can't stand the weight...'
D#|--------------------------------------------------------------------------------------------|
A#|--------------------------------------------------------------------------------------------|
F#|--10--10--101010--10-10----9--9--999--9-9----12--12--121212--12-12----10--10--101010--10-9--|
C#|---x---x---x-x-x---x--x----x--x--xxx--x-x-----x---x---x-x-x---x--x-----x---x---x-x-x---x-x--| X 4
G#|---8---8---8-8-8---8--8----7--7--777--7-7----10--10--101010--10-10-----8---8---8-8-8---8-7--|
C#|--------------------------------------------------------------------------------------------|

'No I can't stand the weight...'
D#|--------------------------------------------|
A#|--------------------------------------------|
F#|--10--10--101010--10-10-----9--9--999--9-9--|
C#|---8---8---8-8-8---8--8-----8--8--888--8-8--|
G#|---8---8---8-8-8---8--8-----8--8--888--8-8--|
c#|---8---8---8-8-8---8--8-----8--8--888--8-8--|

D#|-------------------------------------|
A#|-------------------------------------|
F#|--9--9--999--9-9-----7--7--777--7-7--|
C#|--5--5--555--5-5-----5--5--555--5-5--|
G#|--5--5--555--5-5-----5--5--555--5-5--|
C#|--5--5--555--5-5-----5--5--555--5-5--|

'And I am going to break...'
D#|-------------------------------------|
A#|-------------------------------------|
F#|--7--7--777--7-7-----6--6--666--6-6--|
C#|--4--4--444--4-4-----4--4--444--4-4--|
G#|--4--4--444--4-4-----4--4--444--4-4--|
C#|--4--4--444--4-4-----4--4--444--4-4--|

D#|-------------------------------------------|
A#|-------------------------------------------|
F#|--9--9--999--9-9-----10--10--101010--10-9--|
C#|--5--5--555--5-5------5---5---5-5-5---5-5--|
G#|--5--5--555--5-5------5---5---5-5-5---5-5--|
C#|--5--5--555--5-5------5---5---5-5-5---5-5--|

'These things in my heart...'
D#|----------------------------------------3--3--333--3-3---------------------|
A#|--6--6--666--6-6-----5--5--555--5-5------------------------5--5--555--5-5--|
F#|---------------------------------------------------------------------------| play twice
C#|--3--3--333--3-3-----3--3--333--3-3-----3--3--333--3-3-----3--3--333--3-3--|
G#|--3--3--333--3-3-----3--3--333--3-3-----3--3--333--3-3-----3--3--333--3-3--|
C#|--3--3--333--3-3-----3--3--333--3-3-----3--3--333--3-3-----3--3--333--3-3--|

'Feeding and growing...'
D#|----------------------------------------------------------------------------|
A#|----------------------------------------------------------------------------|
F#|--10-----------------9-----------------12----------12-----9------------9----|   play twice
C#|---x-----------------x------------------x-----------x-----x------------x----|
G#|---8-----------------7-----------------10----------10-----7------------7----|
C#|---0--0--000--0-0----0--0--000--0-0-----0---0--000--0--0--0--0--0-000--0-0--|

D#|----------------------------------------3--3--333--3-3---------------------|
A#|--6--6--666--6-6-----5--5--555--5-5------------------------5--5--555--5-5--|
F#|---------------------------------------------------------------------------| play twice
C#|--3--3--333--3-3-----3--3--333--3-3-----3--3--333--3-3-----3--3--333--3-3--|
G#|--3--3--333--3-3-----3--3--333--3-3-----3--3--333--3-3-----3--3--333--3-3--|
C#|--3--3--333--3-3-----3--3--333--3-3-----3--3--333--3-3-----3--3--333--3-3--|

D#|--------------------------------------------------------------------------------------------|
A#|--------------------------------------------------------------------------------------------|
F#|--10--10--101010--10-10----9--9--999--9-9----12--12--121212--12-12----10--10--101010--10-9--|
C#|---x---x---x-x-x---x--x----x--x--xxx--x-x-----x---x---x-x-x---x--x-----x---x---x-x-x---x-x--| X 2
G#|---8---8---8-8-8---8--8----7--7--777--7-7----10--10--101010--10-10-----8---8---8-8-8---8-7--|
C#|--------------------------------------------------------------------------------------------|

D#|-----|
A#|-----|
F#|--7--|
C#|--x--|
G#|--5--|
C#|--0--|


D#|--------------------|
A#|---------13---------|
F#|----14--------14----|
C#|--0----0----0----0--|
G#|--------------------|
C#|--------------------|

D#|----------------------|
A#|-----------13---------|
F#|------14--------14----|
C#|--0-0----0----0----0--|
G#|----------------------|
C#|----------------------|
                             Play 4 times
D#|----------------------|
A#|-----------15---------|
F#|------14--------14----|
C#|--0-0----0----0----0--|
G#|----------------------|
C#|----------------------|

D#|--------------------------------------------------------------------|
A#|--------------------------------------------------------------------|
F#|------------------------------------7-7-7-7-7-7-7--6-6-6-6-6-6-6-6--|
C#|--8-8-8-8-8-8-8-8--5-5-5-5-5-5-5-5--x-x-x-x-x-x-x--4-4-4-4-4-4-4-4--|
G#|--8-8-8-8-8-8-8-8--5-5-5-5-5-5-5-5--5-5-5-5-5-5-5--5-5-5-5-5-5-5-5--|
C#|--8-8-8-8-8-8-8-8--5-5-5-5-5-5-5-5--0-0-0-0-0-0-0--4-4-4-4-4-4-4-4--|

D#|----------------------------------------------------------------------------|
A#|----------------------------------------------------------------------------|
F#|-----------------------------------------9-9-10-9-9-9-9-9-------------------|
C#|--5-7--8-8-8-8-8-8-8-8--5-5-5-5-5-5-5-5--x-x--x-x-x-x-x-x-------------------|
G#|--5-7--8-8-8-8-8-8-8-8--5-5-5-5-5-5-5-5--7-7--8-7-7-7-7-7-------------------|
C#|--5-7--8-8-8-8-8-8-8-8--5-5-5-5-5-5-5-5--0-0--0-0-0-0-0-0--0-2-4-0-2-4-2-0--|

D#|---------------------------------------------------------------------|
A#|---------------------------------------------------------------------|
F#|------------------------------------9-9-10-9-9-9-9--6-6-6-6-6-6-6-6--|
C#|--8-8-8-8-8-8-8-8--5-5-5-5-5-5-5-5--x-x-x--x-x-x-x--4-4-4-4-4-4-4-4--|
G#|--8-8-8-8-8-8-8-8--5-5-5-5-5-5-5-5--7-7-8--7-7-7-7--5-5-5-5-5-5-5-5--|
C#|--8-8-8-8-8-8-8-8--5-5-5-5-5-5-5-5--0-0-0-0-0-0-0---4-4-4-4-4-4-4-4--|

D#|-----------------------------------------------------------|
A#|-----------------------------------------------------------|
F#|-----------------------------------------9-9-10-9-9-9-9-9--|
C#|--5-7--8-8-8-8-8-8-8-8--5-5-5-5-5-5-5-5--x-x--x-x-x-x-x-x--|
G#|--5-7--8-8-8-8-8-8-8-8--5-5-5-5-5-5-5-5--7-7--8-7-7-7-7-7--|
C#|--5-7--8-8-8-8-8-8-8-8--5-5-5-5-5-5-5-5--0-0--0-0-0-0-0-0--|

D#|----------------------------------------|
A#|----------------------------------------|
F#|----------------------------------------|
C#|----------------------------------------|
G#|----------------------------------------|
C#|--11\--0-2-4-0-2-4-2-0-0-2-4-0-2-4-2-0--|

D#|------------------------------------------------------|
A#|------------------------------------------------------|
F#|-------------------------------------0--0--0--0-------|
C#|-------------------------------------4--4--4--4-------|
G#|------------------------------------------------------|
C#|--0-2-4-0-2-4-0-2-4-0-2-4-0-2-4-0-2------------0-2-4--|

D#|-----------------------------|
A#|-----------------------------|
F#|-----------------------------|   Play twice
C#|--0--2---0--2---0--2---0--2--|
G#|--0--2---0--2---0--2---0--2--|
C#|--0--2---0--2---0--2---0--2--|

D#|----------------------------------------------|
A#|----------------------------------------------|
F#|--------6-6--------6-6--------6-6--------6-6--|
C#|--0--2-------0--2-------0--2-------0--2-------|
G#|--0--2-------0--2-------0--2-------0--2-------|
C#|--0--2-------0--2-------0--2-------0--2-------|

D#|-----------------------------------------------|
A#|-----------------------------------------------|
F#|--------6-6--------6-6--------6-6--------------|
C#|--0--2-------0--2-------0--2-------0-0-0-------|
G#|--0--2-------0--2-------0--2-------0-0-0-------|
C#|--0--2-------0--2-------0--2-------0-0-0--12\--|
PM                                    . . .

'All of us are born the same...'
D#|------------------------------------------------|
A#|------------------------------------------------|
F#|------------------------------------------------| play 3 times
C#|--22-0--22-0--22-0--22-0--33-0-33-0--55-0-55-0--|
G#|--22-0--22-0--22-0--22-0--33-0-33-0--55-0-55-0--|
C#|--22-0--22-0--22-0--22-0--33-0-33-0--55-0-55-0--|
PM   .. .  .. .  .. .  .. .  .. . .. .  .. . .. .

D#|-----------------------------------|
A#|-----------------------------------|
F#|-----------------------------------|
C#|--2-0-2-0-2-0-2-0-3-0-3-0-5-0-5-0--|
G#|--2-0-2-0-2-0-2-0-3-0-3-0-5-0-5-0--|
C#|--2-0-2-0-2-0-2-0-3-0-3-0-5-0-5-0--|

'It's all within my frame...'
D#|-------------------------------------------|
A#|-------------------------------------------|
F#|-------------------------------------------| play twice
C#|--6-6-6-6-6-6-6-6-/-7-7-7-7-/-12-12-12-12--|
G#|-------------------------------------------|
C#|-------------------------------------------|

'Or something nice...'
D#|-------------------------------------------|
A#|-------------------------------------------|
F#|-------------------------------------------|
C#|--6-6-6-6-6-6-6-6-/-7-7-7-7-/-14-14-12-12--|
G#|-------------------------------------------|
C#|-------------------------------------------|

D#|-------------------------------------------------|
A#|-------------------------------------------------|
F#|-------------------------------------------------|
C#|--22-0--22-0--22-0--22-0--33-0-33-0--5--0--5--0--|
G#|--22-0--22-0--22-0--22-0--33-0-33-0--5--0--5--0--|
C#|--22-0--22-0--22-0--22-0--33-0-33-0--5--0--5--0--|
PM   .. .  .. .  .. .  .. .  .. . .. .  .  .  .  .

'Say three hail marys...'
D#|--------------0-0---------------------------|
A#|--------0-0-0-0-0-0---------0-0-------------|
F#|--------5-0-0-0-0-0---------5-0-------------|
C#|--0---0-5-4-4-4-4-4---0---0-5-4-------------|
G#|--0---0-3-4-4-4-4-4---0---0-3-4-------------|
C#|--0---0---4-4-4-4-4---0---0---4--4^--5^--6--|

'for me...'
D#|------------------------------------|
A#|--------0-0-------0---------0--0----|
F#|--------5-0-------0---------5--0----|
C#|--0---0-5-4-0-0-0-4---0---0-5--4----|
G#|--0---0-3-4-0-0-0-4---0---0-3--4----|
C#|--0---0---4-0-0-0-4---0---0----4----|
PM             . . .

D#|---------------------------------|
A#|---------------------------------|
F#|---------------------------------| play 12 times
C#|--------6----------7----------9--|
G#|-----2----------3----------5-----|
C#|--2----------3----------5--------|

D#|-----|
A#|-----|
F#|-----|
C#|--2--|
G#|--2--|
C#|--2--|

D#|-----------------------------------|
A#|-----------------------------------|
F#|-----------------------------------| play 4 times
C#|--2-0-2-0-2-0-2-0-3-0-3-0-5-0-5-0--|
G#|--2-0-2-0-2-0-2-0-3-0-3-0-5-0-5-0--|
C#|--2-0-2-0-2-0-2-0-3-0-3-0-5-0-5-0--|

'GIRL, YOUR MOUTH IS OPEN WIDE...'
D#|-----------------------------------|
A#|-----------------------------------|
F#|-----------------------------------| play 3 times
C#|-----------------------------------|
G#|-----------------------------------|
C#|--2-0-2-0-2-0-2-0-3-0-3-0-5-0-5-0--|

'ALL OF THE TIMES THAT YOU LIED...'
D#|-------------------------------------------------------------------|
A#|-------------------------------------------------------------------|
F#|-------------------------------------------------------------------|
C#|-------------------------------------------------------------------|
G#|-------------------------------------------------------------------|
C#|--2-0-2-0-2-0-2-0-3-0-3-0-5-0-5-0-6-0-6-0-6-0-6-0-7-0-7-0-9-0-9-0--|

'KEEP YOUR MOUTH SHUT!'
D#|---------------------------|
A#|--13-13-13-13-13-13-13-13--|
F#|--16-16-16-16-16-16-16-16--| Repeat till end.
C#|---------------------------| Listen to song for the timing.
G#|---------------------------|
C#|---------------------------|
Tap to rate this tab
 
# A B C D E F G H I J K L M N O P Q R S T U V W X Y Z