Song name
# A B C D E F G H I J K L M N O P Q R S T U V W X Y Z

Reuben - Blood Bunny Larkhall tab

Reuben- Blood Bunny Larkhall
From the album 'In Nothing We Trust'

Nobody seems to have done a tab for this song yet, so I thought I'd give it a quick go.
sounds fine, but as it's Reuben, I'm sure there's some more dissonance going on with the
in the chorus that I can't get. It also sounds like there's loads of guitar overdubs 
slight variations of the chords.

Tuning: Drop D, all strings down 1/2 step

Tab Legend:

/ slide- the slides in the verses are fairly inconsistent, so just slide up to around
17th fret on the bottom string
* let ring
x palm mute
% hit strings behind the nut

     Verse 1
D#|----------------------|
A#|----------------------|
F#|----------------------|
C#|--0--5--0--5--0--5----| x3
G#|--0--5--0--5--0--5----|
C#|--0--5--0--5--0--5-/--|
     You're taking sides...


D#|--------------0*------|
A#|--------------0*------|
F#|--------------0*------|
C#|--0--5--0--5----------|
G#|--0--5--0--5----------|
C#|--0--5--0--5----------|
     You're choice.

D#|---------------|
A#|---------------|
F#|---------------|
C#|--x-x-x-x-x-x--|
G#|--x-x-x-x-x-x--|
C#|--x-x-x-x-x-x--|

D#|----------------------|
A#|----------------------|
F#|----------------------|
C#|--0--5--0--5--0--5----| x3
G#|--0--5--0--5--0--5----|
C#|--0--5--0--5--0--5-/--|
     You're taking sides...

D#|--------------0*------|
A#|--------------0*------|
F#|--------------0*------|
C#|--0--5--0--5----------|
G#|--0--5--0--5----------|
C#|--0--5--0--5----------|
     You're taking

Pre-chorus fill:

D#|---------------|
A#|---------------|
F#|---------------|
C#|--x-x-x-x-x-x--|
G#|--x-x-x-x-x-x--|
C#|--x-x-x-x-x-x--|

First chorus:

D#|--------------------|
A#|--------------------|
F#|--7-7-7-7-7-7-7-7-7-|
C#|--x-x-x-x-x-x-x-x-x-|
G#|--5-5-5-5-5-5-5-5-5-|
C#|--------------------|
    'Cause I feel like...

D#|--------------------|
A#|--------------------|
F#|--7-7-7-7-7-7-7-7-7-|
C#|--x-x-x-x-x-x-x-x-x-|
G#|--5-5-5-5-5-5-5-5-5-|
C#|--8-8-8-8-8-8-8-8-8-|
  ...wrapping me up in...

D#|-------------------------|
A#|-------------------------|
F#|---7-7-7-7-7-9-9-9-9-9-9-|
C#|---x-x-x-x-x-x-x-x-x-x-x-|
G#|---5-5-5-5-5-7-7-7-7-7-7-|
C#|---8-8-8-8-8-------------|
   ...layers of history...

D#|-------------------------------------|
A#|-------------------------------------|
F#|-9-9-9-9-9-9-9-9-9-9-9-9-9-9-7-7-7-7-|
C#|-x-x-x-x-x-x-x-x-x-x-x-x-x-x-x-x-x-x-|
G#|-7-7-7-7-7-7-7-7-7-7-7-7-7-7-5-5-5-5-|
C#|-------------------------------------|
  ...layers of history.

Second Verse:

D#|----------------------|
A#|----------------------|
F#|----------------------|
C#|--0--5--0--5--0--5----| x3
G#|--0--5--0--5--0--5----|
C#|--0--5--0--5--0--5-/--|
     You're holding hands...


D#|--------------0*-----------|
A#|--------------0*-----------|
F#|--------------0*-----------|
C#|--0--5--0--5---------x--x--|
G#|--0--5--0--5---------x--x--|
C#|--0--5--0--5---------x--x--|
           Dying.

Everything you do, however small it might seem to you...

D#|--------------------------%--|
A#|--------------------------%--|
F#|--------------------------%--|
C#|--0--5--0--5--0--5--------%--|
G#|--0--5--0--5--0--5--------%--|
C#|--0--5--0--5--0--5--------%--|
  ...affects something else

D#|--------------0*------|
A#|--------------0*------|
F#|--------------0*------|
C#|--0--5--0--5----------|
G#|--0--5--0--5----------|
C#|--0--5--0--5----------|
  ...trust me it's true


Second chorus:

D#|--------------------|
A#|--------------------|
F#|--7-7-7-7-7-7-7-7-7-|
C#|--x-x-x-x-x-x-x-x-x-|
G#|--5-5-5-5-5-5-5-5-5-|
C#|--------------------|
    'Cause I feel like...

D#|--------------------|
A#|--------------------|
F#|--7-7-7-7-7-7-7-7-7-|
C#|--x-x-x-x-x-x-x-x-x-|
G#|--5-5-5-5-5-5-5-5-5-|
C#|--8-8-8-8-8-8-8-8-8-|
  ...wrapping me up in...

D#|-------------------------|
A#|-------------------------|
F#|---7-7-7-7-7-9-9-9-9-9-9-|
C#|---x-x-x-x-x-x-x-x-x-x-x-|
G#|---5-5-5-5-5-7-7-7-7-7-7-|
C#|---8-8-8-8-8-------------|
   ...layers of history...

D#|-------------------------------------|
A#|-------------------------------------|
F#|-9-9-9-9-9-9-9-9-9-9-9-9-9-9-7-7-7-7-|
C#|-x-x-x-x-x-x-x-x-x-x-x-x-x-x-x-x-x-x-|
G#|-7-7-7-7-7-7-7-7-7-7-7-7-7-7-5-5-5-5-|
C#|-------------------------------------|
  ...layers of history.

    (1.33)
D#|--------------------------------|
A#|--------------------------------|
F#|--7-7-7-7-7-7-7-7-7-7-7-7-7-7-7-|
C#|--7-7-7-7-7-7-7-7-7-7-7-7-7-7-7-|
G#|--5-5-5-5-5-5-5-5-5-5-5-5-5-5-5-|
C#|--0-0-0-0-0-0-0-0-0-0-0-0-0-0-0-|
  ...and i feel like breathing in...

D#|--------------------|
A#|--------------------|
F#|--------------------|
C#|--7-7-7-7-7-7-7-7-7-|
G#|--5-5-5-5-5-5-5-5-5-|
C#|--8-8-8-8-8-8-8-8-8-|
  ...wrapping me up in...

D#|--------------------------------------------|
A#|--------------------------------------------|
F#|--9-9-9-9-9-9-9-9-9-9-9-9-9-9-7-7-7-7-7-7-7-|
C#|--9-9-9-9-9-9-9-9-9-9-9-9-9-9-7-7-7-7-7-7-7-|
G#|--7-7-7-7-7-7-7-7-7-7-7-7-7-7-5-5-5-5-5-5-5-|
C#|--7-7-7-7-7-7-7-7-7-7-7-7-7-7-0-0-0-0-0-0-0-|
  ...history, layers of history


Outro

    (1.55)
D#|----------------------------------|
A#|----------------------------------|
F#|--7-7-7-7-7-7-7-7-7-7-7-7-7-7-7-7-|
C#|--7-7-7-7-7-7-7-7-7-7-7-7-7-7-7-7-|
G#|--5-5-5-5-5-5-5-5-5-5-5-5-5-5-5-5-|
C#|--0-0-0-0-0-0-0-0-0-0-0-0-0-0-0-0-|
     Ohh...

D#|-------------------------------------------------|
A#|-------------------------------------------------|
F#|-10-10-10-10-10-10-10-10-10-10-10-10-10-10-10-10-|
C#|-10-10-10-10-10-10-10-10-10-10-10-10-10-10-10-10-|
G#|-8--8--8--8--8--8--8--8--8--8--8--8--8--8--8--8--|
C#|-------------------------------------------------|

D#|-------------------------------------------------|
A#|-------------------------------------------------|
F#|-10-10-10-10-10-10-10-10-10-10-10-10-10-10-10-10-|
C#|-10-10-10-10-10-10-10-10-10-10-10-10-10-10-10-10-|
G#|-8--8--8--8--8--8--8--8--8--8--8--8--8--8--8--8--|
C#|-------------------------------------------------|

D#|----------------------------------|
A#|----------------------------------|
F#|-9-9-9-9-9-9-9-9-9-9-9-9-9-9-9-9--|
C#|-9-9-9-9-9-9-9-9-9-9-9-9-9-9-9-9--|
G#|-7-7-7-7-7-7-7-7-7-7-7-7-7-7-7-7--|
C#|----------------------------------|

D#|--------------------------------------------------|
A#|--------------------------------------------------|
F#|-8-8-8-8-8-8-8-8-8-8-8-8-8-8-8-8-8-8-8-8-8-8-8-8--|
C#|-8-8-8-8-8-8-8-8-8-8-8-8-8-8-8-8-8-8-8-8-8-8-8-8--|
G#|-6-6-6-6-6-6-6-6-6-6-6-6-6-6-6-6-6-6-6-6-6-6-6-6--|
C#|--------------------------------------------------|

Acoustic Outro

D#|-----|
A#|-----|
F#|-7---|
C#|-7---|
G#|-5---|
C#|-0---|
    I feel like...

D#|------|
A#|------|
F#|--10--|
C#|--10--|
G#|--8---|
C#|------|
  ...wrapping me up in

D#|------|
A#|------|
F#|--10--|
C#|--8---|
G#|--8---|
C#|--8---|
  ...history...

D#|-------------------|
A#|-------------------|
F#|----------------5--|
C#|----------------3--|
G#|----------------3--|
C#|----------------3--|
 ...layers of history.


D#|-----|
A#|-----|
F#|-7---|
C#|-7---|
G#|-5---|
C#|-0---|
    I feel like...

D#|------|
A#|------|
F#|--10--|
C#|--10--|
G#|--8---|
C#|------|
  ...wrapping me up in...

D#|---------------|
A#|---------------|
F#|------------4--|
C#|------------2--|
G#|------------2--|
C#|------------2--|
  ...layers of history.

Can't get the last 2 chords, sorry.

Hope this helps someone make a better tab
Tap to rate this tab
 
# A B C D E F G H I J K L M N O P Q R S T U V W X Y Z