Song name
# A B C D E F G H I J K L M N O P Q R S T U V W X Y Z

Reuben - Were All Going Home In An Ambulance tab

Artist: Reuben
Song: We're All Going Home In An Ambulance
Available on: In Nothing We trust
Tabbed by: Alex Johnson - on 21/07/07

Tuning is half a step down.

D# G# C# F# A# D#

e|-----------------------------------------|
b|-----------------------------------------|
g|-----------------------------------------|
d|-----------------------------------------|
a|-----------------------------------------|
e|--12\-2-2-2-2-2-2-2-2-3-3-3-3-3-3-3-3----|   \
                  X2
e|-----------------------------------------|   /
b|-----------------------------------------|
g|-----------------------------------------|
d|-----------------------------------------|
a|-----------------------------------------|
e|--4-4-4-4-4-4-4-4-5-5-5-5-5-5-5-5--------|

e|-----------------------------------------|
b|-----------------------------------------|
g|-----------------------------------------|
d|--4-4-4-4-4-4-4-4-3-3-3-3-3-3-3-3--------|
a|-----------------------------------------|
e|--2-2-2-2-2-2-2-2-3-3-3-3-3-3-3-3--------|   \
                  X2
e|-----------------------------------------|   /
b|-----------------------------------------|
g|-----------------------------------------|
d|------------------5-5-5-5-5-5-5-5--------|
a|--7-7-7-7-7-7-7-7------------------------|
e|--4-4-4-4-4-4-4-4-5-5-5-5-5-5-5-5--------|

e|--------------------------|
b|--------------------------|
g|------15---15-------15----|    X8
d|------14---14-------14----|
a|------13---13-------13----|
e|--0-0----0----0-0-0-------|

e|-----------------------------|
b|--12-12-12-12-12-12-12-12----|
g|--15-15-15-15-15-15-15-15----|  X2
d|-----------------------------|
a|-----------------------------|
e|-----------------------------|


e|-----------------------------------------|
b|-----------------------------------------|
g|-----------------------------------------|
d|-----------------------------------------|
a|--4-4-4-4-4-4-4-4-5-5-5-5-5-5-5-5--------|
e|--2-2-2-2-2-2-2-2-3-3-3-3-3-3-3-3--------|
PM  ---------------------------------------|       \
                                            X2
e|--------------------------------------|   /
b|--------------------------------------|
g|--------------------------------------|
d|--------------------------------------|
a|--6-6-6-6-6-6-6-6-7-7-7-7-7-7-7-7-----|
e|--4-4-4-4-4-4-4-4-5-5-5-5-5-5-5-5-----|
PM  ------------------------------------|

e|----------------------------------------|
b|--17-(x8)-------------------------------|
g|-----------15-(x8)--18-(x8)-------------|
d|-----------------------------14-(x8)----|
a|----------------------------------------|
e|----------------------------------------|

e|----------------------------------------|
b|--17-(x8)-------------------20^-(x8)----|
g|----------15-(x8)--18-(x8)--------------|
d|----------------------------------------|
a|----------------------------------------|
e|----------------------------------------|

e|--------------------------|
b|--------------------------|
g|------15---15-------15----|    X16
d|------14---14-------14----|
a|------13---13-------13----|
e|--0-0----0----0-0-0-------|

e|-------------------------------------|
b|-------------------------------------|
g|-------------------------------------|
d|-------------------------------------|
a|-------------------------------------|
e|--3-3-3-3-3-3-3-3-3-3-3-3-3-4-5-6----|

e|-------------------------------------|
b|-------------------------------------|
g|-------------------------------------|
d|-------------------------------------|
a|-------------------------------------|
e|--0-0-0-0-0-0-0-0-0-0-0-0-9-10-11-12-|

e|-------------------------------------|
b|-------------------------------------|
g|-------------------------------------|
d|-------------------------------------|
a|-------------------------------------|
e|--3-3-3-3-3-3-3-3-3-3-3-3-3-4-5-6----|

e|--------------------------------------------------|
b|-------------------------------------15^-(x16)----|
g|--------------------------15^-(x16)--15^-(x16)----|
d|--------------------------------------------------|
a|--------------------------------------------------|
e|--0-0-0-10-12-10-12-10----------------------------|

e|-------0----|
b|-------0----|
g|--0----0----| X4
d|--0----0----|
a|--0----0----|
e|--0----0----|

e|------------------------------------------------------------------------|
b|------------------------------------------------------------------------| X2
g|------------------------------------------------------------------------|
d|------------------------------------------------------------------------|
a|------------------------------------------------------------------------|
e|--0-2-3-0-6-7-0-0-2-3-0-0-9-10-0-0-4-5-0-0-12-13-0-0-7-8-0-0-4-5-0-0----|
PM  ----------------------------------------------------------------------|

e|------------------|
b|------------------|
g|------------------|
d|-----------6-7----|
a|-----------6-7----|
e|--0-2-3--0-6-7----|

e|------------------------------------------|
b|------------------------------------------|
g|------------------------------------------|
d|-----------9-10----4-5----12-13----7------|
a|-----------9-10----4-5----12-13----7------|
e|--0-2-3--0-9-10--0-4-5--0-12-13--0-7-0----|

e|---------------10-------------------------------------|
b|---------------10-------------------------------------|
g|------0--3--9--10--11--10--11--12---15151515151515----|
d|--12--0--3--9--10--11--10--11--12---14141414141414----|
a|--12--0--3--9--10--11--10--11--12---13131313131313----|
e|--12--0--3--9------11--10--11--12---12121212121212----|

e|-----------------------------------|
b|-----------------------------------|
g|-----------------------------------|
d|-------12-12-12--------12-12-12----|
a|-------13-13-13--------13-13-13----|
e|--0--0-12-12-12---0--0-12-12-12----|

e|--12----------11-12-13-------------------|
b|-----------11----------------12-13-14----|
g|-----10-11-------------12-13-12-13-14----|
d|-----------------------------------------|
a|-----------------------------------------|
e|-----------------------------------------|

e|-----------------------------------|
b|-----------------------------------|
g|-----------------------------------|
d|-------12-12-12--------12-12-12----|
a|-------13-13-13--------13-13-13----|
e|--0--0-12-12-12---0--0-12-12-12----|

e|--9-10-11----------11-12-13-------------|
b|-------------------11-12-13-13-14-15----|
g|----------11-12-13----------13-14-15----|
d|----------------------------------------|
a|----------------------------------------|
e|----------------------------------------|

e|-----------------------------------|
b|-----------------------------------|
g|-----------------------------------|
d|-------12-12-12--------12-12-12----|
a|-------13-13-13--------13-13-13----|
e|--0--0-12-12-12---0--0-12-12-12----|

e|-------------------------------------------------|
b|-------------------------------------------------|
g|-------------------------------------------------|
d|-------------------------------------------------|
a|--9-9-8-8-8-8-8-8-8-8-10-10-10-10-10-10-10-10----|
e|--7-7-6-6-6-6-6-6-6-6--8--8--8--8--8--8--8--8----|

e|-----------------------------------|
b|-----------------------------------|
g|-----------------------------------|
d|-------12-12-12--------12-12-12----|
a|-------13-13-13--------13-13-13----|
e|--0--0-12-12-12---0--0-12-12-12----|

e|---------------------------------|
b|---------------------------------|
g|----------------9--9--9--9--9----|
d|--8-8-8-8-8----10-10-10-10-10----|
a|--8-8-8-8-8----10-10-10-10-10----|
e|--6-6-6-6-6-----0--0--0--0--0----|

e|----------------------0--------0h2-----|
b|-----------------------3-------3-------|
g|--12--------11----------0------0-------|  X3
d|--12--------12-----------2-------------|
a|--10--------10-------------------------|
e|---------------------------------------|

e|---------------------------------|
b|---------------------------------|
g|------12-----12-----12-----12----|
d|------12-----12-----12-----12----|
a|------10-----10-----10-----10----|
e|--0-0----0-0----0-0----0-0-------|  \
                                        X6 with parm mutes
e|---------------------------------|  /  X4 strumming
b|---------------------------------|
g|------11-----11-----11-----11----|
d|------12-----12-----12-----12----|
a|------10-----10-----10-----10----|
e|--0-0----0-0----0-0----0-0-------|

e|--7--------5---------------------------------|
b|--8--------7---------------------------------|
g|--9-(x16)--7-(x32)--6------------------------| X2
d|--9--------7--------7-(x8)-------------------|
a|--7--------5--------7------------------------|
e|--------------------5------0--3-3-5-5-7-7----|

e|-----------------------|
b|-----------------------|
g|-----------------------| X3
d|--12--------9----------|
a|--10-(x14)--7-(x14)----|
e|--8---------5----------|

e|--------------------0----|
b|--------------------0----|
g|--------------------0----|
d|--5-----5-3-----3-2------| X2
a|--5-----5-3-----3-2------|
e|--3--0--3-1--0--1-0------|

e|----------------------|
b|----------------------|
g|----------------------|
d|--5-----5-------------|
a|--5-----5-3-3-3-3-----|
e|--3--0--3-1-1-1-1-----|
PM          ------------|

e|----------------------------------|
b|----------------------------------|
g|-------9--------------------------|
d|-------9-8---8-9----9----5-5-6-6--|
a|--2-2--7-8---8-9----9----5-5-6-6--|
e|--0-0----6-0-6-7--0-7--0-3-3-4-4--|
PM  ---                                \
                                          X2
e|----------------------------------|   /
b|----------------------------------|
g|-------9--------------------------|
d|-------9-8---8-5----5----4-4-3-3--|
a|--2-2--7-8---8-5----5----3-3-2-2--|
e|--0-0----6-0-6-3--0-3--0-2-2-1-1--|
PM  ---

e|--------------------------|
b|--------------------------|
g|------15---15-------15----|
d|------14---14-------14----|
a|------13---13-------13----|
e|--0-0----0----0-0-0-------|


All credit to Liam Saxton who tabbed this out
I just uploaded it.

Enjoy =]
Tap to rate this tab
 
# A B C D E F G H I J K L M N O P Q R S T U V W X Y Z