Guitaretab - guitar tabs
Song name
# A B C D E F G H I J K L M N O P Q R S T U V W X Y Z

Reuben - Glitterskin tab

ARTIST/BAND: Reuben
SONG: Glitterskin
RELEASED ON: Betrayed 
GUITARIST: Jamie Lenman
TABBED BY: Zak.P

TUNING: Standard (E A D G B E)

  
INTRO: x2
E]-------------------------------------------|    |-----------------------------|
B]-------------------------------------------|    |-----------------------------|
G]-------------------------------------------|    |--12-12-12-12--12-12-12--12--|
D]-------------------------------------------| x2 |--12-12-12-12--12-12-12--12--| x2
A]--11-11--11-11-11--11-11-11--11-11-11--11--|    |--11-11-11-11--11-11-11--11--|
E]---0--0---0-10-10--10--0--0---0-10-10--10--|    |--10-10-10-10--10-10-10--10--|

VERSE:
Chew it up...                                    Sell my soul...
E]-------------------------------------------|    |-----------------------------|
B]-------------------------------------------|    |-----------------------------|
G]-------------------------------------------|    |--12-12-12-12--12-12-12--12--|
D]-------------------------------------------| x2 |--12-12-12-12--12-12-12--12--| x2
A]--11-11--11-11-11--11-11-11--11-11-11--11--|    |--11-11-11-11--11-11-11--11--|
E]---0--0---0-10-10--10--0--0---0-10-10--10--|    |--10-10-10-10--10-10-10--10--|

CHORUS:
Its just a bad dream.
E]---------------------------------------------------------|
B]---------------------------------------------------------|
G]--6--6-6-6-6-4--4-4-4-4/6-6-6-1--1-1-1-7--7-7-7-7-7-7-7--|
D]--7--7-7-7-7-5--5-5-5-5/7-7-7-2--2-2-2-7--7-7-7-7-7-7-7--| x3
A]--7--7-7-7-7-5--5-5-5-5/7-7-7-2--2-2-2-5--5-5-5-5-5-5-5--|
E]--5--5-5-5-5-3--3-3-3-3/5-5-5-0--0-0-0-------------------|

E]---------------------------|
B]---------------------------|
G]--6--6-6-6-6-4--4-4-4-4/6--|
D]--7--7-7-7-7-5--5-5-5-5/7--|
A]--7--7-7-7-7-5--5-5-5-5/7--|
E]--5--5-5-5-5-3--3-3-3-3/5--|

E]-------------------------------------------|    |-----------------------------|
B]-------------------------------------------|    |-----------------------------|
G]-------------------------------------------|    |--12-12-12-12--12-12-12--12--|
D]-------------------------------------------| x2 |--12-12-12-12--12-12-12--12--| x2
A]--11-11--11-11-11--11-11-11--11-11-11--11--|    |--11-11-11-11--11-11-11--11--|
E]---0--0---0-10-10--10--0--0---0-10-10--10--|    |--10-10-10-10--10-10-10--10--|

VERSE 2:
Thank god, I can sleep again                     So you can...
E]-------------------------------------------|    |-----------------------------|
B]-------------------------------------------|    |-----------------------------|
G]-------------------------------------------|    |--12-12-12-12--12-12-12--12--|
D]-------------------------------------------| x2 |--12-12-12-12--12-12-12--12--| x2
A]--11-11--11-11-11--11-11-11--11-11-11--11--|    |--11-11-11-11--11-11-11--11--|
E]---0--0---0-10-10--10--0--0---0-10-10--10--|    |--10-10-10-10--10-10-10--10--|
[ Tab from: http://www.guitaretab.com/r/reuben/95042.html ]
CHORUS:
Its just a bad dream.
E]---------------------------------------------------------|
B]---------------------------------------------------------|
G]--6--6-6-6-6-4--4-4-4-4/6-6-6-1--1-1-1-7--7-7-7-7-7-7-7--|
D]--7--7-7-7-7-5--5-5-5-5/7-7-7-2--2-2-2-7--7-7-7-7-7-7-7--| x3
A]--7--7-7-7-7-5--5-5-5-5/7-7-7-2--2-2-2-5--5-5-5-5-5-5-5--|
E]--5--5-5-5-5-3--3-3-3-3/5-5-5-0--0-0-0-------------------|

E]---------------------------|
B]---------------------------|
G]--6--6-6-6-6-4--4-4-4-4/6--|
D]--7--7-7-7-7-5--5-5-5-5/7--|
A]--7--7-7-7-7-5--5-5-5-5/7--|
E]--5--5-5-5-5-3--3-3-3-3/5--|

E]-------------------------------------------|    |-----------------------------|
B]-------------------------------------------|    |-----------------------------|
G]-------------------------------------------|    |--12-12-12-12--12-12-12--12--|
D]-------------------------------------------| x2 |--12-12-12-12--12-12-12--12--| x2
A]--11-11--11-11-11--11-11-11--11-11-11--11--|    |--11-11-11-11--11-11-11--11--|
E]---0--0---0-10-10--10--0--0---0-10-10--10--|    |--10-10-10-10--10-10-10--10--|

(Bass interlude)
Im alright, Im okay.

INTERLUDE:
E]-------------------------------------|
B]-------------------------------------|
G]-------------------------------------|
D]-------------------------------------| x2
A]-------------------------------------|
E]--0-0--0-10-10--10-0-0--0-10-10--10--|

BRIDGE:
E]---------------------------|
B]---------------------------|
G]---------------------------|
D]--------x-x-8---------x-5--| x3
A]----5-7-x-x-8-----5-7-x-5--|
E]--0-----x-x-6---0-----x-3--|

E]---------------------------|
B]---------------------------|
G]------------------------6--|
D]--------x-x-8---------x-7--|
A]----5-7-x-x-8-----5-7-x-7--|
E]--0-----x-x-6---0-----x-5--|

E]---------------------------------------------------------|
B]---------------------------------------------------------|
G]--6--6-6-6-6-4--4-4-4-4/6-6-6-1--1-1-1-7--7-7-7-7-7-7-7--|
D]--7--7-7-7-7-5--5-5-5-5/7-7-7-2--2-2-2-7--7-7-7-7-7-7-7--| x2
A]--7--7-7-7-7-5--5-5-5-5/7-7-7-2--2-2-2-5--5-5-5-5-5-5-5--|
E]--5--5-5-5-5-3--3-3-3-3/5-5-5-0--0-0-0-------------------|

OUTRO CHORUS:
Oh, its alright. Im okay. Im alright.
E]---------------------------------------------------------|
B]---------------------------------------------------------|
G]--6--6-6-6-6-4--4-4-4-4/6-6-6-1--1-1-1-7--7-7-7-7-7-7-7--|
D]--7--7-7-7-7-5--5-5-5-5/7-7-7-2--2-2-2-7--7-7-7-7-7-7-7--|
A]--7--7-7-7-7-5--5-5-5-5/7-7-7-2--2-2-2-5--5-5-5-5-5-5-5--|
E]--5--5-5-5-5-3--3-3-3-3/5-5-5-0--0-0-0-------------------|

E]---------------------------|
B]---------------------------|
G]--6--6-6-6-6-4--4-4-4-4/6--|
D]--7--7-7-7-7-5--5-5-5-5/7--|
A]--7--7-7-7-7-5--5-5-5-5/7--|
E]--5--5-5-5-5-3--3-3-3-3/5--|

E]-------------------------------------------|
B]-------------------------------------------|
G]-------------------------------------------|
D]-------------------------------------------| x2
A]--11-11--11-11-11--11-11-11--11-11-11--11--|
E]---0--0---0-10-10--10--0--0---0-10-10--10--|

E]-----------------------------|
B]-----------------------------|
G]--12-12-12-12--12-12-12--12--|
D]--12-12-12-12--12-12-12--12--| x6
A]--11-11-11-11--11-11-11--11--|
E]--10-10-10-10--10-10-10--10--|
Related for Glitterskin tab