Song name
# A B C D E F G H I J K L M N O P Q R S T U V W X Y Z

Reuben - Banner Held High tab

Help us improve GuitareTab! Take a short survey!
Reuben
Banner Held High
From the 'Stux' single
Tuning: Half-step down

Notation:

p = pull-off
* = let ring
\ = slide down
x = palm mute with fretting hand
P.M. = palm mute with picking hand

   0.00
D#|---------------------|
A#|---------------------|
F#|---------------------|
C#|---------------------| x4
G#|---------------8--8--|
D#|--0-0-0-0-0-0--6--6--|
     \Triplets/

   0.05
D#|-----------------------------|
A#|-----------------------------|
F#|-----------------------7--7--|
C#|-----------------------8--8--|
G#|-----------------------8--8--| x4
D#|--7-p-(0)-0-7-p-(0)-0--6--6--|
     \____Triplets_____/

   0.11 
D#|--------------------------------|
A#|--------------------------------|
F#|--------------------------------|
C#|--------------------------------|
G#|--2*----------------------------|
D#|--0*----------------------------|
    "Social interaction makes me sick...
   
    0.15
D#|-------------------------------|
A#|-------------------------------|
F#|-------------------------------|
C#|-------------------------------|
G#|-------------------------------|
D#|-----------(12)-\--------------|
  ...I'm just building up a network...

   0.22
D#|-----------------------------------------------------------|
A#|-----------------------------------------------------------|
F#|-----------------------------------------------------------|
C#|--2-----------5------------------10-----------------7------|
G#|--2-----------5------------------10-----------------7------|
D#|--0-----------3------------------8------------------5------|
  ...people only like you if you've got something they want...

   0.27
D#|---------------------|
A#|---------------------|
F#|---------------------|
C#|---------------------| x4
G#|---------------------|
D#|--7-x-x-7-x-x--6--6--|
     P.M._____________|
 
   0.34
D#|---------------------|
A#|---------------------|
F#|---------------------|
C#|---------------------| x4
G#|---------------8--8--|
D#|--0-0-0-0-0-0--6--6--|
     \Triplets/

   0.39
D#|-----------------------------|
A#|-----------------------------|
F#|-----------------------7--7--|
C#|-----------------------8--8--|
G#|-----------------------8--8--| x4
D#|--7-p-(0)-0-7-p-(0)-0--6--6--|
     \____Triplets_____/

   0.44
D#|--------------------------------------|
A#|--------------------------------------|
F#|--------------------------------------|
C#|--------------------------------------|
G#|--7*---5*--7*---5*--7*---5*--7*---5*--|
D#|--------------------------------------|

   0.50 (chord changes correspond with lyrics)
D#|------------------------------------------------------------------|
A#|------------------------------------------------------------------|
F#|--9-9-9-9-7-7-7-7-----------------9-9-9-9-7-7-7-7-----------------|
C#|--x-x-x-x-x-x-x-x-9-9-9-9-9-8-8-8-x-x-x-x-x-x-x-x-9-9-9-9-8-8-8-8-| x2
G#|--7-7-7-7-5-5-5-5-x-x-x-x-x-x-x-x-7-7-7-7-5-5-5-5-x-x-x-x-x-x-x-x-|
D#|------------------7-7-7-7-7-6-6-6-----------------7-7-7-7-6-6-6-6-|
 ..."I have  wasted  thousands of my kisses  on your picture and...

   1.01
D#|-------------------------------------------------------------|
A#|-------------------------------------------------------------|
F#|-------------------------------------------------------------|
C#|-----2------------------5--------------10------------5-------|
G#|-----2------------------5--------------10------------5-------|
D#|-----0------------------3--------------8-------------3-------|
 ...You could have been my everything but you went with another...

   1.06
D#|---------------------|
A#|---------------------|
F#|---------------------|
C#|---------------------| x8 (with cymbal break after 4x)
G#|---------------8--8--|
D#|--0-0-0-0-0-0--6--6--|
     \Triplets/

     1.18
D#|-----------------------------|
A#|-----------------------------|
F#|-----------------------7--7--|
C#|-----------------------8--8--|
G#|-----------------------8--8--| x4
D#|--7-p-(0)-0-7-p-(0)-0--6--6--|
     \____Triplets_____/
 
   1.24
D#|---------------------------------------------------------|
A#|---------------------------------------------------------|
F#|---------------------------------------------------------|
C#|---------------------------------------------------------| X2
G#|---------------------------------------------------------|
D#|--6-6-6-6-6-6-7-7-7-7-7-7-9-9-9-9-9-9-10-10-10-10-10-10--|

   1.35
D#|-------------------------------------|
A#|-------------------------------------|
F#|-------------------------------------|
C#|-------------------------------------| X4
G#|--------------------7-p-(0)-5-p-(0)--|
D#|--3-3-3-3-5-6-0-0-0------------------|

   1.45
D#|---------------------|
A#|---------------------|
F#|---------------------|
C#|---------------------| x4
G#|---------------8--8--|
D#|--0-0-0-0-0-0--6--6--|
     \Triplets/

   1.51
D#|-----------------------------|
A#|-----------------------------|
F#|-----------------------7--7--|
C#|-----------------------8--8--|
G#|-----------------------8--8--| x4
D#|--7-p-(0)-0-7-p-(0)-0--6--6--|
     \____Triplets_____/

   1.57
D#|---------------------|
A#|---------------------|
F#|---------------------|
C#|---------------------| x4
G#|---------------8--8--|
D#|--0-0-0-0-0-0--6--6--|
     \Triplets/

   2.02-2.08
D#|---------------------------|
A#|---------------------------|
F#|---------------------------|
C#|---------------------------|
G#|--7-7-7-7-7-7-7-7-7-7-7-7--|
D#|--0-0-0-0-0-0-0-0-0-0-0-0--|
Related for Banner Held High tab