Song name
# A B C D E F G H I J K L M N O P Q R S T U V W X Y Z

Reuben - Wooden Boy tab

ARTIST/BAND: Reuben
SONG: Wooden Boy
RELEASED ON: Scared Of The Police Single 
GUITARIST: Jamie Lenman
TABBED BY: Aiden


TUNING: Drop D (D A D G B E)


E]-------------------------------------------------------------|
B]-------------------------------------------------------------|
G]--9-9-9----9-9-9----9-9--------------------------------------|
D]--x-x-x-0--x-x-x-0--x-x-0---3-3-3-3-3-3-5-5-5-5-5-5-5-5-5-5--|
A]--7-7-7-0--7-7-7-0--7-7-0---3-3-3-3-3-3-5-5-5-5-5-5-5-5-5-5--|
D]--------0--------0------0---3-3-3-3-3-3-5-5-5-5-5-5-5-5-5-5--|

E]-------------------------------------------------------------|
B]-------------------------------------------------------------|
G]--9-9-9----9-9-9----9-9--------------------------------------|
D]--x-x-x-0--x-x-x-0--x-x-0---3-3-3-3-3-3-5-5-5-5-5-5-5-5-5-5--|
A]--7-7-7-0--7-7-7-0--7-7-0---3-3-3-3-3-3-5-5-5-5-5-5-5-5-5-5--|
D]--------0--------0------0---3-3-3-3-3-3-5-5-5-5-5-5-5-5-5-5--|

E]---------------------------------------------|
B]------------------------------------8-----5--|
G]--10-10-10-10--9-9-9-9---9-9-9----0-----0----|
D]---x--x--x--x--x-x-x-x---x-x-x--7-----7------|
A]---8--8--8--8--7-7-7-7---7-7-7---------------|
D]---------------------------------------------|

E]---------------------------------------|
B]------------------------------------8--|
G]--10-10-10-10--9-9-9-9---9-9-9----0----|
D]---x--x--x--x--x-x-x-x---x-x-x--7------|
A]---8--8--8--8--7-7-7-7---7-7-7---------|
D]---------------------------------------|

E]-------------------------------------------------------------------|
B]--x-10-x-10-10-10-x-10-x-10-10-10-x-10-x-10-10-10-x-10-x-10-10-10--|
G]--x--7-x--7--7--7-x--7-x--7--7--7-x--7-x--7--7--7-x--7-x--7--7--7--|
D]--x--8-x--8--8--8-x--8-x--8--8--8-x--8-x--8--8--8-x--8-x--8--8--8--|
A]--x--8-x--8--8--8-x--8-x--8--8--8-x--8-x--8--8--8-x--8-x--8--8--8--|
D]-------------------------------------------------------------------|
       ^               ^               ^               ^   
Note played on bass changes at these spots while guitar plays one chord.

Repeat up until the end of "I guess I passed". After that there's chords I don't know...


"Fire away..."
E]-------------------------------------------------------------|
B]-------------------------------------------------------------|
G]--9-9-9----9-9-9----9-9--------------------------------------|
D]--x-x-x-0--x-x-x-0--x-x-0---3-3-3-3-3-3-5-5-5-5-5-5-5-5-5-5--|
A]--7-7-7-0--7-7-7-0--7-7-0---3-3-3-3-3-3-5-5-5-5-5-5-5-5-5-5--|
D]--------0--------0------0---3-3-3-3-3-3-5-5-5-5-5-5-5-5-5-5--|

E]-------------------------------------------------------------|
B]-------------------------------------------------------------|
G]--9-9-9----9-9-9----9-9--------------------------------------|
D]--x-x-x-0--x-x-x-0--x-x-0---3-3-3-3-3-3-5-5-5-5-5-5-5-5-5-5--|
A]--7-7-7-0--7-7-7-0--7-7-0---3-3-3-3-3-3-5-5-5-5-5-5-5-5-5-5--|
D]--------0--------0------0---3-3-3-3-3-3-5-5-5-5-5-5-5-5-5-5--|

E]---------------------------------------------|
B]------------------------------------8-----5--|
G]--10-10-10-10--9-9-9-9---9-9-9----0-----0----|
D]---x--x--x--x--x-x-x-x---x-x-x--7-----7------|
A]---8--8--8--8--7-7-7-7---7-7-7---------------|
D]---------------------------------------------|

E]---------------------------------------|
B]------------------------------------8--|
G]--10-10-10-10--9-9-9-9---9-9-9----0----|
D]---x--x--x--x--x-x-x-x---x-x-x--7------|
A]---8--8--8--8--7-7-7-7---7-7-7---------|
D]---------------------------------------|

E]-----------------------------|------------------------------------------|
B]-----------------------------|-9-9-9-9-9-9-9-9-12-12-12-12-12-12-12-12--|
G]-----------------------------|-9-9-9-9-9-9-9-9-12-12-12-12-12-12-12-12--|
D]-----------------------------|-x-x-x-x-x-x-x-x--x--x--x--x--x--x--x--x--|
A]-----------------------------|-7-7-7-7-7-7-7-7-10-10-10-10-10-10-10-10--|
D]-7h8p0-7--0-7h8p0-7--0-7h8p0-|------------------------------------------|
                                 My adrenaline flows... (repeat as needed)


Just before "I'm waterproof and see-through..."
E]-------------------------------------|
B]------8-----5---------------------8--|
G]----0-----0---------------------0----|
D]--7-----7---------------------7------|
A]-------------------------------------|
D]-------------------------------------|

"Your mind is dead..."
E]-----------------------------------------------------------|
B]-----------------------------------------------------------|
G]-----------------------------------------------------------|
D]-----------------------------------------------------------|
A]-7-7-7----7-7-7---7-7--------------------------------------|
D]-------0--------0-----0---3-3-3-3-3-3-5-5-5-5-5-5-5-5-5-5--|

"And I don't want space..."
E]------------------------------------| 
B]------------------------------------| 
G]--5----5---5---5---4---4---4---4----|
D]--5--5---5---5---5---7---7---7---7--|
A]--0---------------------------------|
D]--0---------------------------------|

E]---------------------------------------------------------|
B]---------------------------------------------------------|
G]---------------------------------------------------------|
D]---------------------------------------------------------|
A]--10-10-10-10-10-10-10-10-10-10-10-10-10-10-10-10-10-10--|
D]--10-10-10-10-10-10-10-10-10-10-10-10-10-10-10-10-10-10--|

Drums enter...

E]------------------------------------------------------------------|
B]------------------------------------------------------------------|
G]------------------------------------------------------------------|
D]------------------------------------------------------------------|
A]--10-10-10-10-10-10-10-10-10-10-10-10-10-10-10-10-10-12-12-12-12--|
D]--10-10-10-10-10-10-10-10-10-10-10-10-10-10-10-10-12-12-12-12-12--|

E]-------------------------------------------------------------|
B]-------------------------------------------------------------|
G]--9-9-9----9-9-9----9-9--------------------------------------|
D]--x-x-x-0--x-x-x-0--x-x-0---3-3-3-3-3-3-5-5-5-5-5-5-5-5-5-5--|
A]--7-7-7-0--7-7-7-0--7-7-0---3-3-3-3-3-3-5-5-5-5-5-5-5-5-5-5--|
D]--------0--------0------0---3-3-3-3-3-3-5-5-5-5-5-5-5-5-5-5--|

E]-------------------------------------------------------------|
B]-------------------------------------------------------------|
G]--9-9-9----9-9-9----9-9--------------------------------------|
D]--x-x-x-0--x-x-x-0--x-x-0---3-3-3-3-3-3-5-5-5-5-5-5-5-5-5-5--|
A]--7-7-7-0--7-7-7-0--7-7-0---3-3-3-3-3-3-5-5-5-5-5-5-5-5-5-5--|
D]--------0--------0------0---3-3-3-3-3-3-5-5-5-5-5-5-5-5-5-5--|

E]----------------------------------------|-------|--------|
B]----------------------------------------|-------|--------|
G]----------------------------------------|-------|--------|
D]----------------------------------------|-------|--0-----|
A]--7-7-7----7-7-7---7-7---7-7-7---7-7----|-7b8r7-|--0-----|
D]--------0--------0-----0-------0-----0--|-------|--0-----|
                                           First    Second
                                           time     time
Tap to rate this tab
 
# A B C D E F G H I J K L M N O P Q R S T U V W X Y Z