Song name
# A B C D E F G H I J K L M N O P Q R S T U V W X Y Z

Reuben - Lissom Slo tab

ARTIST/BAND: Reuben
SONG: Lissom Slo
RELEASED ON: Unreleased 
GUITARIST: Jamie Lenman
TABBED BY: colour_golden (Mike Mcloughin)


TUNING: Drop D (D A D G B E)


Intro
E]------------------------------------------------------|
B]------------------------------------------------------|
G]------8-----8---------8----------------8-----8-----8--|
D]----6---------------6----------------6-------------6--|
A]--7-------7---7---4------4---4--6--7------7--------4--|
D]------------------------------------------------------|

Verse
E]-------------------------------------------------------------|
B]-------------------------------------------------------------|
G]-------------------------------------------------------------|
D]------6---------6-------6-------6-------6-------6-------6----|
A]----6---6----6----6---6---6---6---6---6---6---6---6---6---6--|
D]--6--------6--------5-------5-------4-------4-------3--------|
Tap to rate this tab
# A B C D E F G H I J K L M N O P Q R S T U V W X Y Z