Song name
# A B C D E F G H I J K L M N O P Q R S T U V W X Y Z

Reuben - Deadly Lethal Ninja Assassin tab

Help us improve GuitareTab! Take a short survey!
Song:Deadly Lethal Ninja Assassin
Artist:Reuben
Album:In Nothing We Trust
Guitarist:Jamie Lenman
Tabbed by:Duncan S/reelbigfish432

Cool song, inconvenient tuning but hey.

Tuning (from high to low):
C#
G#
E
B
F#
B
so drop the low E string and down 2 steps. So it's easier for me I'll write out the 
letters in normal tuning.

Legend:
. under a note or chord - palm mute
b - bend note
r - return bend
x - string mute
Verse:
E|-------------------------------------|
B|-------------------------------------|
G|-------------------------------------|
D|-0-0-0-0-7-7-7-7-10-10-10-10-5-5---5-|x8
A|-0-0-0-0-7-7-7-7-10-10-10-10-5-5---5-|
E|-0-0-0-0-7-7-7-7-10-10-10-10-5-5---5-|

Pre-Chorus:
E|---|
B|---|
G|---|
D|-2-|repeat a lot
A|-2-|
E|-2-|

Chorus 1:
E|-------------------------------------------------|
B|-------------------------------------------------|
G|-------------------------------------------------|
D|-7-7----10-10----5-5-5-5-5-5-5-5-3-3-3-3-0-0-0-0-|x4
A|-7-7----10-10----5-5-5-5-5-5-5-5-3-3-3-3-0-0-0-0-|
E|-7-7----10-10----5-5-5-5-5-5-5-5-3-3-3-3-0-0-0-0-|

Then play another verse (half the length of the first one)
Then a pre-chorus
Then;

Chorus 2:
E|-------------------------------------------------------|
B|-----10----------10------------------------------------|
G|--------9-----------9----------------------------------|
D|-7-7-------10-10-------5-5-5-5-5-5-5-5-3-3-3-3-0-0-0-0-|x4
A|-7-7-------10-10-------5-5-5-5-5-5-5-5-3-3-3-3-0-0-0-0-|
E|-7-7-------10-10-------5-5-5-5-5-5-5-5-3-3-3-3-0-0-0-0-|

At the end of the fourth repeat, instead of doing the normal ending do;

Bridge:
E|-----------------------------------|
B|-----------------------------------|
G|-----------------------------------|
D|-3333333333333333-0000000000000000-|x4
A|-3333333333333333-0000000000000000-|
E|-3333333333333333-0000000000000000-|

E|-------0--------------0-|-------0-----------------------------|
B|-------0--------------0-|-------0-----------------------------|
G|-------0--------------0-|-------0-----------------------------|
D|-------0--------------0-|-------0-----------------------------|
A|-3-3-3-0--------0-0-0-0-|-3-3-3-0--------0-0-0-7-7b8-7b8r-5-3-|
E|-3-3-3----------0-0-0---|-3-3-3----------0-0-0----------------|
   . . .          . . .     . . .          . . .

E|-------0--------------0-|
B|-------0--------------0-|
G|-------0--------------0-|
D|-------0--------------0-|x2
A|-3-3-3-0--------0-0-0---|
E|-3-3-3----------0-0-0---|

E|-----------------|
B|-0-0-0-0-0-0-0-0-|
G|-0-0-0-0-0-0-0-0-|
D|-0-0-0-0-0-0-0-0-|
A|-0-0-0-0-0-0-0-0-|
E|-0-0-0-0-0-0-0-0-|

Then there's just the bass for a while but halfway through the `you're dressed like a 
at a swimming pool` bit, it goes,

E|---------------------------------------------------------------------|
A|---------------------------------------------------------------------|
D|---------------------------------------------------------------------|
G|-0-0-0-0-9-9-9-9-7-7-7-7---------------------7-7-7-7-----------------|
B|-------------------------9-9-9-9-10-10-10-10---------9-9-9-9-9-9-9-7-|x4
E|---------------------------------------------------------------------|
   . . . . . . . . . . . . . . . .  .  .  .  . . . . . . . . . . . . .

Final Chorus:
E|------------------------------------|
B|------------------------------------|
G|------------------------------------|
D|-7-7----10-10----5-5----------------|
A|-7-7----10-10----5-5----3-3-3-0-0-0-|
E|-7-7----10-10----5-5----3-3-3-0-0-0-|
                          . . . . . .

E|---------------------------------------------|
B|---------------------------------------------|
G|---------------------------------------------|
D|-7-7-x-x-x-10-10-x-x-x-5-5-x-x-x-3-3-3-0-0-0-|
A|-7-7-x-x-x-10-10-x-x-x-5-5-x-x-x-3-3-3-0-0-0-|
E|-7-7-x-x-x-10-10-x-x-x-5-5-x-x-x-3-3-3-0-0-0-|

E|----------------------------------------------|
B|----------------------------------------------|
G|----------------------------------------------|
D|-77777777-1010101010101010-55555555-3333-0000-|x7
A|-77777777-1010101010101010-55555555-3333-0000-|
E|-77777777-1010101010101010-55555555-3333-0000-|

E|------------------------------------|
B|------------------------------------|
G|------------------------------------|
D|-77777777-1010101010101010-55555555-|
A|-77777777-1010101010101010-55555555-|
E|-77777777-1010101010101010-55555555-|
                             ........

Outro:
note:there are two ways of playing this, the first way is;
E|--------------------------------------|
B|--------------------------------------|
G|-5555555555555555--77777777--44444444-|
D|-3333333333333333--55555555--22222222-|x4
A|-3333333333333333--55555555--22222222-|
E|-3333333333333333--55555555--22222222-|

                or

E|--------------------------------------|
B|--------------------------------------|
G|-5555555555555555--77777777--44444444-|
D|--------------------------------------|x4
A|--------------------------------------|
E|-3333333333333333--55555555--22222222-|

Then the ending is (after a pause):

Ending:
E|-------|
B|-------|
G|-------|
D|-22222-|
A|-22222-|
E|-22222-|

Arrangement:
Verse
Pre-Chorus
Chorus 1
Verse
Pre-Chorus
Chorus 2
Bridge
Final Chorus
Outro
Ending

Pretty easy song, enjoy!
Related for Deadly Lethal Ninja Assassin tab