Song name
# A B C D E F G H I J K L M N O P Q R S T U V W X Y Z

Reuben - Stealing Is Easy tab

REUBEN
Stealing Is Easy (Demo Version)
(I have tabbed the demo version which is in drop C#, simply because that's what tuning 
guitar is in, and I'm too lazy to tune up, but if you're playing the 'Stux' single 
it'll be virutally the same, except I think it's in drop D).

<#> means harmonic at given fret
b means gradual bend
* means tremelo pick

   0.08-0.11
D#|--------|
A#|--------|
F#|--------|
C#|--------|
G#|--------|
C#|--<12>--|
    (Fade in- play note about 12 times)

D#|----------------|
A#|----------------|
F#|------<12>------|
C#|-<12>-----------|
G#|-----------<12>-|
D#|----------------|

   Verse 1 (guitar comes in halfway through)
D#|------------------------|
A#|------------------------|
F#|------------------------|
C#|--------------10-10-9-9-|
G#|-x-x-x-x-x-x--10-10-9-9-|
C#|-x-x-x-x-x-x--10-10-9-9-|

   Chorus
D#|---------------------------------|
A#|---------------------------------|
F#|---------------------------------|
C#|-8-8-8-8-8-8-8-8-5-5-5-5-5-5-5-5-| x2
G#|-8-8-8-8-8-8-8-8-5-5-5-5-5-5-5-5-|
C#|-8-8-8-8-8-8-8-8-5-5-5-5-5-5-5-5-|
    "The way she looks...

D#|------------------------------------------|
A#|------------------------------------------|
F#|------------------------------------------|
C#|--8-8-8-8-8-8-8-8-10-10-10-10-10-10-10-10-|
G#|--8-8-8-8-8-8-8-8-10-10-10-10-10-10-10-10-|
C#|--8-8-8-8-8-8-8-8-10-10-10-10-10-10-10-10-|
            when she looks at...

D#|--------------------------------------------------------------|
A#|--------------------------------------------------------------|
F#|--------------------------------------------------------------|
C#|---12-12-12-12--12-12-12-12---12-12-12-12----12-12-12-12------|
G#|---12-12-12-12--12-12-12-12---12-12-12-12----12-12-12-12------|
C#|---12-12-12-12--12-12-12-12---12-12-12-12----12-12-12-12------|
   me.           we           got           this           thing"

   Post chorus
D#|----------------------------------------------|
A#|----------------------------------------------|
F#|----------------------------------------------|
C#|-12-12--12-12-12--12-12-12--12-10-10-10-9-9-9-|
G#|-12-12--12-12-12--12-12-12--12-10-10-10-9-9-9-|
C#|-12-12--12-12-12--12-12-12--12-10-10-10-9-9-9-|

   Verse 2 (first half)
D#|--------------------------------------------------------|
A#|--------------------------------------------------------|
F#|--------------------------------------------------------|
C#|-<12>-<12>--<12>-<12>-<12>--12-12-12--12-10-10-10-9-9-9-|
G#|-<12>-<12>--<12>-<12>-<12>--12-12-12--12-10-10-10-9-9-9-|
C#|----------------------------12-12-12--12-10-10-10-9-9-9-|

   Verse 2 (second half)
D#|--------|
A#|--------|
F#|--*13b--|
C#|--*x----|
G#|--*11---|
C#|--------|

   After second chorus
D#|-------------------------|
A#|-------------------------|
F#|-------------------------|
C#|--0----------------------|
G#|--0----------------------|
C#|--0----------------------|
    (Let ring over bass line)

D#|---------------------------------------------------------------------|
A#|-------13-(let ring)-------------------------13---------------13--13-|
F#|----12------------------------------------12------------------12--12-|
C#|-12------------------------------------12---------------------12--12-|
G#|---------------------------------------------------------------0---0-|
C#|---------------------------------------------------------------------|
         "I like sleeping, I like eating, I like food and I like bed."

   Outro
D#|-----------------------------------------------------------|
A#|-----------------------------------------------------------|
F#|-----------------------------------------------------------|
C#|--12-0-2-3-4-0--10-0-5-6-7-0--12-0-2-3-4-0--10-10-10-10-10-|
G#|--12-0-2-3-4-0--10-0-5-6-7-0--12-0-2-3-4-0--10-10-10-10-10-|
C#|--12-0-2-3-4-0--10-0-5-6-7-0--12-0-2-3-4-0--10-10-10-10-10-|

   End On
D#|------|
A#|------|
F#|------|
C#|--12--|
G#|--12--|
C#|--12--|
Tap to rate this tab
 
# A B C D E F G H I J K L M N O P Q R S T U V W X Y Z