Song name
# A B C D E F G H I J K L M N O P Q R S T U V W X Y Z

Reuben - Christmas Is Awesome tab

Artist:Reuben
Title:Christmas Is Awesome
Tabbed by:Duncan S/reelbigfish432

This is the best christmas song ever and i really hope its christmas number one. Enjoy.

[Update: 30/6/08]
OK, I fixed the tuning problem, changed the outro and i think I've nailed the chorus. 
It got taken out of the running for number one due to and error in the entered song title, 
Reuben are on `indefinate hiatus` which sucks)

Tuning (high to low):
Eb
Bb
Gb
Db
Ab
Db
Just tune to drop D and go down half a step.

Legend:
pm--- and ...-palm mute


Intro:
  pm------   -----    -----    -----------|
Eb|---------------------------------------|
Bb|---------------------------------------|
Gb|---------------------------------------|
Db|-------10-------10-------10-------12---|
Ab|-0-0-0-10-0-0-0-10-0-0-0-10-0-0-0-12---|
Db|-0-0-0-10-0-0-0-10-0-0-0-10-0-0-0-12---|
    . . .    . . .    . . .    . . .

  pm------   ------------------------|
Eb|----------------------------------|
Bb|----------------------------------|
Gb|----------------------------------|
Db|-------10-0-0-0-10-1010-9--55-3---|
Ab|-0-0-0-10-0-0-0-10-1010-9--55-3---|
Db|-0-0-0-10-0-0-0-10-1010-9--55-3---|
    . . .    . . .

  pm------   -----    -----    -----------|
Eb|---------------------------------------|
Bb|---------------------------------------|
Gb|---------------------------------------|
Db|-------10-------10-------10-------15---|
Ab|-0-0-0-10-0-0-0-10-0-0-0-10-0-0-0-15---|
Db|-0-0-0-10-0-0-0-10-0-0-0-10-0-0-0-15---|
    . . .    . . .    . . .    . . .

  pm------   ------------------------|
Eb|----------------------------------|
Bb|----------------------------------|
Gb|----------------------------------|
Db|-------10-------10-1010-9--55-3---|
Ab|-0-0-0-10-0-0-0-10-1010-9--55-3---|
Db|-0-0-0-10-0-0-0-10-1010-9--55-3---|
    . . .    . . .

Verse:
  pm------   -----    -----    -----------|
Eb|---------------------------------------|
Bb|---------------------------------------|
Gb|---------------------------------------|
Db|-------10-------10-------10-------12---|
Ab|-0-0-0-10-0-0-0-10-0-0-0-10-0-0-0-12---|
Db|-0-0-0-10-0-0-0-10-0-0-0-10-0-0-0-12---|
    . . .    . . .    . . .    . . .

  pm------   ------------------------|
Eb|----------------------------------|
Bb|----------------------------------|
Gb|----------------------------------|
Db|-------10-------10-1010-9--55-3---|x2
Ab|-0-0-0-10-0-0-0-10-1010-9--55-3---|
Db|-0-0-0-10-0-0-0-10-1010-9--55-3---|
    . . .    . . .

  pm------   -----    -----    -----------|
Eb|---------------------------------------|
Bb|---------------------------------------|
Gb|---------------------------------------|
Db|-------10-------10-------10-------15---|
Ab|-0-0-0-10-0-0-0-10-0-0-0-10-0-0-0-15---|
Db|-0-0-0-10-0-0-0-10-0-0-0-10-0-0-0-15---|
    . . .    . . .    . . .    . . .

  pm------   ------------------------|
Eb|----------------------------------|
Bb|----------------------------------|
Gb|----------------------------------|
Db|-------10-------10-1010-9--55-3---|
Ab|-0-0-0-10-0-0-0-10-1010-9--55-3---|
Db|-0-0-0-10-0-0-0-10-1010-9--55-3---|
    . . .    . . .

  pm------   -----    -----    -----------|
Eb|---------------------------------------|
Bb|---------------------------------------|
Gb|---------------------------------------|
Db|-------10-------10-------10-------12---|
Ab|-0-0-0-10-0-0-0-10-0-0-0-10-0-0-0-12---|
Db|-0-0-0-10-0-0-0-10-0-0-0-10-0-0-0-12---|
    . . .    . . .    . . .    . . .

  pm------   ------------------------|
Eb|----------------------------------|
Bb|----------------------------------|
Gb|----------------------------------|
Db|-------10-------10-1010-9--55-3---|
Ab|-0-0-0-10-0-0-0-10-1010-9--55-3---|
Db|-0-0-0-10-0-0-0-10-1010-9--55-3---|
    . . .    . . .

Chorus:
Eb|---------------------------------|
Bb|---------------------------------|
Gb|---------------------------------|
Db|---------------------------------|
Ab|-------------3-4-5-5-5-4-3-------|
Db|-5-0-5-4-3-0---------------0-3-4-|

Eb|---------------------------------|
Bb|---------------------------------|
Gb|---------------------------------|
Db|---------------------------------|
Ab|---------------------------------|
Db|-0-0-5-4-3-0-6-7-0-0-5-4-3-0-1-0-|

Eb|---------------------------------|
Bb|---------------------------------|
Gb|---------------------------------|
Db|---------------------------------|
Ab|-------------3-4-5-5-5-4-3-------|
Db|-5-0-5-4-3-0---------------0-3-4-|

Eb|----------------------------|
Bb|----------------------------|
Gb|----------------------------|
Db|----------------------------|
Ab|----------------------------|
Db|-5-0-5-4-3-0-5-6-7--5--3--2-|

Then another verse which goes in to an extended chorus, the first part of which is 
but the second part is:

Final Chorus (Second Part):
Eb|----------------------------------------|
Bb|----------------------------------------|
Gb|----------------------------------------|
Db|----------------------------------------|
Ab|-5-0-5-4-3-0-10-11-12-12-12-11-10-0-3-4-|
Db|-5-0-5-4-3-0-10-11-12-12-12-11-10-0-3-4-|

Eb|---------------------------------|
Bb|---------------------------------|
Gb|---------------------------------|
Db|---------------------------------|
Ab|-5-0-5-4-3-0-6-7-0-0-5-4-3-0-1-0-|
Db|-5-0-5-4-3-0-6-7-0-0-5-4-3-0-1-0-|

Eb|----------------------------|
Bb|----------------------------|
Gb|----------------------------|
Db|----------------------------|
Ab|-5-0-5-4-3-0-5-6-7--5--3--2-|
Db|-5-0-5-4-3-0-5-6-7--5--3--2-|

Outro:
Eb|------------------|
Bb|------------------|
Gb|-10-10--10-10--10-|
Db|-12-12--12-12--12-|x2
Ab|--0--0---0--0---0-|
Db|--0--0---0--0---0-|

Eb|-------------------------|--|----|
Bb|-------------------------|  |----|
Gb|----10-10-------10----10-|  |----|
Db|-12-------12-12----12----|x3|-12-|x2
Ab|--0--------0--0-----0----|  |--0-|
Db|--0--------0--0-----0----|--|--0-|


And that's it. I dont usually include the lyrics but these ones are cool so just for you 
ducks I will.
HAPPY CHRISTMAS!

1,2,3,4
Well it's the 25th,
We got the day off work,
We're rocking out the place.
Look out for mistletoe,
Look out for mistletoe,
Or I will kiss your face.
2000 years ago,
A little boy was born,
To save the human race.
Well it's your birthday,
So have a party!
We're sorry about all of that nailed to a cross business.

(Chorus)
Everybody is welcome,
Yeah Christmas is awesome,
Everybody is welcome,
Welcome!

You got a horrid shirt,
You got a comedy sock,
You got a gift for you.
I got a DVD,
I got a DVD
And it was Doctor Who.
And if I eat a sprout,
You gotta eat a sprout,
You gotta suffer too.
Then dinner's all done,
And man we had fun,
But knock on the door,
Open it for,
Carol singing kids.

(Chorus)

Merry Christmas

And then the jesus painting says nice. XD
Tap to rate this tab
# A B C D E F G H I J K L M N O P Q R S T U V W X Y Z