Song name
# A B C D E F G H I J K L M N O P Q R S T U V W X Y Z

Rev Gary Davis - Hesitation Blues tab

Help us improve GuitareTab! Take a short survey!
----------------------------------------------------------------------------
		   Hesitation Blues - Reverend Gary Davis
----------------------------------------------------------------------------


Tabbed by: Dave S.
Email: prime-prine@hotmail.com

Tuning: Standard

|----0-------0----|----0-------0----|----0-------0-1--2-|-3--0------------|
|-1----1--0----0--|-1----1--0----0--|-1----1--0---------|------1--0-------|
|-----------------|-----------------|-------------------|-----------3--0--|
|-----------------|-----------------|-------------------|-----------------|
|-0----0-------2--|-0----0-------2--|-0----0------------|-----------------|
|---------0-------|---------0-------|---------0---------|-----------------|


|----3--1-----|----3--1-----|-0--3-----1--|-0--3-----5--|
|----1--1-----|----1--1-----|-1--1--3--3--|-1--1--------|
|----------2--|----------2--|-------0-----|-------------|
|-------------|-------------|-------------|-------------|
|----------3--|----------3--|-3--3--------|-3--3--------|
|-1--1--1-----|-1--1--1-----|-------3--3--|-------3-----|


|-3--5-3--0-------|----1--0-----|-------------|-------------|
|-----------1-----|----0--0--3--|-1--1--1--1--|-1-----0-----|
|--------------2--|-0--------0--|-0--3--2--1--|-0-----1-----|
|-----------------|-------------|-2--2--3--3--|-2-----2-----|
|-----------------|-------0--2--|-3--3--3--3--|-3--3--2-----|
|-----------------|----3--------|-------1--1--|----------0--|


|----0-------0----|----0-------0----|----0-------0-1--2-|-3--0------------|
|-1----1--0----0--|-1----1--0----0--|-1----1--0---------|------1--0-------|
|-----------------|-----------------|-------------------|-----------3--0--|
|-----------------|-----------------|-------------------|-----------------|
|-0----0-------2--|-0----0-------2--|-0----0------------|-----------------|
|---------0-------|---------0-------|---------0---------|-----------------|


|----3--1-----|----3--1-----|-0--3-----1--|-0--3-----5--|
|----1--1-----|----1--1-----|-1--1--3--3--|-1--1--------|
|----------2--|----------2--|-------0-----|-------------|
|-------------|-------------|-------------|-------------|
|----------3--|----------3--|-3--3--------|-3--3--------|
|-1--1--1-----|-1--1--1-----|-------3--3--|-------3-----|


|-3--5-3--0-------|----1--0-----|-------------|-------0----|
|-----------1-----|----0--0--3--|-1-----------|----0--1----|
|--------------2--|-0--------0--|-0--3--2--1--|-0--2--3----|
|-----------------|-------------|----2--3--3--|-2--1--2----|
|-----------------|-------0--2--|-3--3--3--3--|-3--2--3----|
|-----------------|----3--------|-------------|------------|


| /  slide up
| \  slide down
| h  hammer-on
| p  pull-off
| ~  vibrato
| +  harmonic
| x  Mute note
===========================================================================
Related for Hesitation Blues tab