Rev Gary Davis - Im Throwing Up My Hands tab

Song: I'm Throwing Up My Hands 
Band: Rev. Gary Davis


Tuning: Standard



 
E||---9--9--9--9--9--9--9--9--9--9--9--9-|
B||--10-10-10-10-10-10-10-10-10-10-10-10-|
G||---9--9--9--9--9--9--9--9--9--9--9--9-|
D||---7--------7--------7--------7-------|
A||--------------------------------------|
E||--------------------------------------|

  
--9--9--9--9--9--9--9--9--9--9--9--9|-9--9--9--9--9--9--9--9--9--9--9--9-|
-10-10-10-10-10-10-10-10-10-10-10-10|10-10-10-10-10-10-10-10-10-10-10-10-|
--9--9--9--9--9--9--9--9--9--9--9--9|-9--9--9--9--9--9--9--9--9--9--9--9-|
--7---------------------------------|------------------------------------|
--------------------0---------------|-0-----------------0----------------|
-----------0-----------------0------|----------0-----------------0-------|

 
---9--9--9--9--9--9--9--9--9--9----|--5--5-5--5-7p-5---0--7-|
--10-10-10-10-10-10-10-10-10-10--7-|--7--7-7--7------7------|
---9--9--9--9--9--9--9--9--9--9----|------------------------|
---7--------------------------7----|--0---------0-----------|
---------------------0-------------|-------0-----------0----|
------------0----------------------|------------------------|

  
--5--0---5---0--7-5--9-|-----0------0----0------|------------------------|
-------7---7-----------|--10----1-2-------------|------------------------|
-----------------------|------------------------|-2----------------------|
--0----------0---------|---7----1-2---2----0----|------------------0-1-2-|
-------0----------0----|----------------------4-|------------0-3-4-------|
-----------------------|------------------------|----0-4-0-4-------------|

  
--0--0---------0------|-------------------------|------5---5-5-4-0-------|
----------3----3------|-1-1-0----------0---3----|--------4---------------|
----------------------|-2-----2----0-1---1-1----|-2----5-----------------|
-------2---------2--4-|------------2------------|----4-------4-----1-0---|
----------------------|--------------------2--4-|----------------------4-|
--0---------0---------|-------1--0--------------|------------------------|

        
-------0--------||
-------2--------||
--2----2--------||
-------2--------||
-------0--------||
----------------||



************************************

| /   slide up
| \   slide down
| h   hammer-on
| p   pull-off
| ~   vibrato
| +   harmonic
| x   Mute note
| b   Bend
| pb  Pre-bend
| br  Bend release
| pbr Pre-bend release
| brb Bend release bend

************************************
Tap to rate this tab
 
# A B C D E F G H I J K L M N O P Q R S T U V W X Y Z