Rev Peytons Big Damn Band - Plainfield Blues tab

Plainfild Blus   Rev Pyton's Big Damn Band. (http:www.bigdamnband.com)
Any fans out there? Please send lyric corrections to J@LaffingAcademy.com 
or if you Want a PDF with four bars per system.


Verse
                                          
|-----0-----3-----0-------|-----0------------------|
|--3----------------------|--3--------1------------|
|-------------------------|------------------------|
|--------2-----------2----|--------2----------2----|
|--3-----------3----------|--3-----------3---------|
|-------------------------|------------------------|
                                                         
-----0-----3-----0-------|-----0------------------|----------------------|
--3----------------------|--3--------1------------|--1----1--------------|
-------------------------|------------------------|----------------------|
--------2-----------2----|--------2----------0----|-------3---------3----|
--3-----------3----------|--3-----------3---------|----------------------|
-------------------------|------------------------|--1---------1---------|
                                                         
----------------------|---------------------0--|----------------------|
-------3----1---------|------------3--1--------|------------3---------|
----------------------|------------------------|----------------------|
-------3---------3----|-------2----------2-----|-------2---------0----|
----------------------|--3---------3-----------|--3---------3---------|
--1---------1---------|------------------------|----------------------|
                                                         
----------------------|----------------------|-----------------------|
--1---------5---------|-------5----4----3----|--1-------1------------|
----------------------|----------------------|-----------------------|
-------3---------5----|-------5---------3----|-------2----------2----|
----------------------|----------------------|--3----------3---------|
--1---------3---------|--3---------2---------|-----------------------|
                         
                        Inst                                
-----------------------|--3-------------0-------|--0--------5-----0-------|
---------------1-------|----------1-------------|-----1-------------------|
-----------------------|------------------------|-------------------------|
-------2----------2----|-------2-----------2----|--------2-----------2----|
--3---------3----------|--3----------3----------|--3-----------3----------|
-----------------------|------------------------|-------------------------|
                                                         
--0--0-------------------|--0--------3-----0-------|----------------------|
-----------1--3--1-------|-----1-------------------|-------1---------3----|
-------------------------|-------------------------|----------------------|
--------2-----------2----|--------2-----------2----|-------3---------3----|
--3-----------3----------|--3-----------3----------|----------------------|
-------------------------|-------------------------|--1---------1---------|
                                                         
----------------------|----------------3-------|----------------0-------|
--1--------------3----|--1-------1-------------|--1-------1-------------|
----------------------|------------------------|------------------------|
-------3---------3----|-------2-----------2----|-------2-----------2----|
----------------------|--3----------3----------|--3----------3----------|
--1---------1---------|------------------------|------------------------|
                                                         
----------------------|-----------3------------|-------6-------6-------|
-------0---------0----|------------------------|-------5-------5-------|
--3---------3---------|--3--4------------------|-----------------------|
-------0---------0----|--------0----------0----|-------0----------0----|
----------------------|------------------------|-----------------------|
--3---------3---------|--3-----------3---------|--3---------3----------|
                                                         
--6-------6------------|--0---------------0----|-------------0----------|
--5-------5------------|----------1------------|--1-------1-----1-------|
-----------------------|-----------------------|------------------------|
-------0----------0----|-------2----------2----|-------2-----------2----|
-----------------------|--3----------3---------|--3----------3----------|
--3----------3---------|-----------------------|------------------------|
                                       
--3----3----3--------0--|------------0----------||
---------------1--------|--1------------1-------||
------------------------|-----------------------||
-------2----------2-----|-------2----------2----||
--3---------3-----------|--3---------3----------||
------------------------|-----------------------||





My Ol Lady she got it hard
I just left her with my pa oh yeah
we moving on
Goin to Plainfield gotta get along

I got me an old six  string
How much can I get  for this thing oh yeah
I need some dough
Get to Plainfield Oh don't you know?

C'mon man let's make a deal
I got kids how would you feel? oh yeah
or don't you care 
talking bout Plainfield they got work done there

Inst
 
This is a guy that feels born to lose 
get yourself to Plainfield get those Plainfield blues 
oh yeah
Got the Plainfield those Plainfield Blues

Inst


I got me an old six  string
How much can I get  for this thing oh yeah
I need some dough
Get to Plainfield Oh don't you know?

C'mon man let's make a deal
I got kids how would yuou feel? oh yeah
or don't you care talking bout Plainfield they got work done there
Tap to rate this tab
 
# A B C D E F G H I J K L M N O P Q R S T U V W X Y Z