Song name
# A B C D E F G H I J K L M N O P Q R S T U V W X Y Z

Rev Theory - Light It Up Acoustic tab

Tabbed it on acoustic same on electric on most part. parts of the other tabs was 
right or really close. Solo is about 9/10.
The chorus strumming pattern is down,down,up,down,up,down,up Enjoy!!!!
Update: 100% right
Drop C tuning

Intro Julien Rhythem
D----------------------------------|
A-----3------3-------3------3---3--|
F----------------------------------|
C-0-------------3------2------0----| x4
G---0-------------3~-----2~--------|
C-------3~~------------------------|

Lixx Lead
D------------------------------------------------|
A------------------------------------------------|
F------------------------------------------------|
C-----------------5-3-0~~~~~~~~~~-5-3-0-3-5~-3-0-|
G-----------------5-3-0~~~~~~~~~~-5-3-0-3-5~-3-0-|
C-----------------5-3-0~~~~~~~~~~-5-3-0-3-5~-3-0-|

Pre-verse 

D------------------------------------------------------------|
A------------------------------------------------------------|
F-------------------------------------------1--------0-------|
C-7-5-0-3-5-0~~-7-5-0-3-5-0~~-7-5-0-3-5-3-3----0-2-3---3-0~--| 
G-7-5-0-3-5-0~~-7-5-0-3-5-0~~-7-5-0-3-5-3-3----0-2-3---3-0~--|
C-7-5-0-3-5-0~~-7-5-0-3-5-0~~-7-5-0-3-5-3-3----0-2-3---3-0~--|

Verse Julien and Lixx

Hey I want a taste  You're a black heart devil..
D------------------------------------------------------------|
A------------------------------------------------------------|
F-------------------------------------------1--------0-------|
C-7-5-0-3-5-0~~-7-5-0-3-5-0~~-7-5-0-3-5-3-3----0-2-3---3-0~--| 
G-7-5-0-3-5-0~~-7-5-0-3-5-0~~-7-5-0-3-5-3-3----0-2-3---3-0~--| X3
C-7-5-0-3-5-0~~-7-5-0-3-5-0~~-7-5-0-3-5-3-3----0-2-3---3-0~--|

Pre-chorus Julien and Lixx

Every night she seems to change her name does it matter who you really are..
D------------------------------------------------------------|
A------------------------------------------------------------|
F-------------------------------------------1--------0-------|
C-7-5-0-3-5-0~~-7-5-0-3-5-0~~-7-5-0-3-5-3-3----0-2-3---3-0~--| X2
G-7-5-0-3-5-0~~-7-5-0-3-5-0~~-7-5-0-3-5-3-3----0-2-3---3-0~--|
C-7-5-0-3-5-0~~-7-5-0-3-5-0~~-7-5-0-3-5-3-3----0-2-3---3-0~--|

Chorus Julien and Lixx

I ignite so hold on cuz we're about to light it up..
D------------------------------------------------------------------|
A------------------------------------------------------------------|
F---------------------------------5-5-5-5-5-5-5-5------------------|
C-0-0-0-0-0-0-0-0-3-3-3-3-3-3-3-3-5-5-5-5-5-5-5-5-5-5-5-5-5-5-5-5--| x2
G-0-0-0-0-0-0-0-0-3-3-3-3-3-3-3-3-3-3-3-3-3-3-3-3-5-5-5-5-5-5-5-5--|
C-0-0-0-0-0-0-0-0-3-3-3-3-3-3-3-3-----------------5-5-5-5-5-5-5-5--|

About to light it up
D--------------------------------------------------------------------------|
A--------------------------------------------------------------------------|
F-----------------------------------------------------------1-------0------|
C-5-3-0-3-5~-3-0--7-5-0-3-5-0~~-7-5-0-3-5-0~~-7-5-0-3-5-3-3---0-2-3---3-0~-|
G-5-3-0-3-5~-3-0--7-5-0-3-5-0~~-7-5-0-3-5-0~~-7-5-0-3-5-3-3---0-2-3---3-0~-|
C-5-3-0-3-5~-3-0--7-5-0-3-5-0~~-7-5-0-3-5-0~~-7-5-0-3-5-3-3---0-2-3---3-0~-|

Verse Julien and Lixx

Hey there's no escape  cuz i'm a hard time sinner with a bullet to waste..
D------------------------------------------------------------|
A------------------------------------------------------------|
F-------------------------------------------1--------0-------|
C-7-5-0-3-5-0~~-7-5-0-3-5-0~~-7-5-0-3-5-3-3----0-2-3---3-0~--| X3
G-7-5-0-3-5-0~~-7-5-0-3-5-0~~-7-5-0-3-5-3-3----0-2-3---3-0~--|
C-7-5-0-3-5-0~~-7-5-0-3-5-0~~-7-5-0-3-5-3-3----0-2-3---3-0~--|

Pre-Chorus Julien and Lixx

I got the whiskey running through my veins tip me over and corer the valve..

D------------------------------------------------------------|
A------------------------------------------------------------|
F-------------------------------------------1--------0-------|
C-7-5-0-3-5-0~~-7-5-0-3-5-0~~-7-5-0-3-5-3-3----0-2-3---3-0~--| X2
G-7-5-0-3-5-0~~-7-5-0-3-5-0~~-7-5-0-3-5-3-3----0-2-3---3-0~--|
C-7-5-0-3-5-0~~-7-5-0-3-5-0~~-7-5-0-3-5-3-3----0-2-3---3-0~--|

Chorus Julien and Lixx

I ignite so hold on cuz we're about to light it up..
D------------------------------------------------------------------|
A------------------------------------------------------------------|
F---------------------------------5-5-5-5-5-5-5-5------------------|
C-0-0-0-0-0-0-0-0-3-3-3-3-3-3-3-3-5-5-5-5-5-5-5-5-5-5-5-5-5-5-5-5--| x3
G-0-0-0-0-0-0-0-0-3-3-3-3-3-3-3-3-3-3-3-3-3-3-3-3-5-5-5-5-5-5-5-5--|
C-0-0-0-0-0-0-0-0-3-3-3-3-3-3-3-3-----------------5-5-5-5-5-5-5-5--|

Interlude Julien and Lixx

It keeps calling my name..
D-----------------------------------------------------------------|
A-----------------------------------------------------------------|
F-----------------------------------------------------------------|
C-7-5-0-3-5-0-2--7-5-0-3-5-0-2--7-5-0-3-5-0-2-7-7-7-7-10-10-10-10-|
G-7-5-0-3-5-0-2--7-5-0-3-5-0-2--7-5-0-3-5-0-2-7-7-7-7-10-10-10-10-|
C-7-5-0-3-5-0-2--7-5-0-3-5-0-2--7-5-0-3-5-0-2-7-7-7-7-10-10-10-10-|
                                           pm . . . . 
Solo
Julien
D----------------------------------------------------------|
A----------------------------------------------------------|
F-------------------------------------------1-------0------|
C-7-5-0-3-5-0~~-7-5-0-3-5-0~~-7-5-0-3-5-3-3---0-2-3---3-0~-|
G-7-5-0-3-5-0~~-7-5-0-3-5-0~~-7-5-0-3-5-3-3---0-2-3---3-0~-|
C-7-5-0-3-5-0~~-7-5-0-3-5-0~~-7-5-0-3-5-3-3---0-2-3---3-0~-|

Lixx
Alter pick all the way to 17/9
D----------------------------------------------------------------------|
A----------------------------------------------------------------------|
F-10-13-12-10-13-12-10-13-12-10-13-12-10-13-12-10-13-12-10-13-12-17\9--|
C----------------------------------------------------------------------|
G----------------------------------------------------------------------|
C----------------------------------------------------------------------|

    /hold in bend/
D-----------------------------------------------------------------|
A-12b-12-12-12-12-13br-13-10-11-10b-10~-12-13-14-16p15-17b-17b-17b|
F-----------------------------------------------------------------|
C-----------------------------------------------------------------|
G-----------------------------------------------------------------|
C-----------------------------------------------------------------|

D---------------------|
A-15h17p15~-----------|
F---------------------|
C---------------------|
G---------------------|
C---------------------|

Bridge

Julien
D----------------------------------|
A-----3------3-------3------3---3--|
F----------------------------------|
C-0-------------3------2------0----| x4
G---0-------------3~-----2~--------|
C-------3~~------------------------|

Lixx
D----------------------|
A----------------------|
F----------------------|
C-----------------5-3-0|
G-----------------5-3-0|
C-----------------5-3-0|
Yo daddy told you not to play my game....
Chorus

I ignite so hold on cuz we're about to light it up..
D------------------------------------------------------------------|
A------------------------------------------------------------------|
F---------------------------------5-5-5-5-5-5-5-5------------------|
C-0-0-0-0-0-0-0-0-3-3-3-3-3-3-3-3-5-5-5-5-5-5-5-5-5-5-5-5-5-5-5-5--| x4
G-0-0-0-0-0-0-0-0-3-3-3-3-3-3-3-3-3-3-3-3-3-3-3-3-5-5-5-5-5-5-5-5--|
C-0-0-0-0-0-0-0-0-3-3-3-3-3-3-3-3-----------------5-5-5-5-5-5-5-5--|

Outro

Julien
D-------------------------------------------|
A-------------------------------------------|
F-------------------------------------------|
C-5~~~~~~~~~~~~-5-3-0-3-5~-3-0~~~~~~~~~~~~~-|
G-5~~~~~~~~~~~~-5-3-0-3-5~-3-0~~~~~~~~~~~~~-|
C-5~~~~~~~~~~~~-5-3-0-3-5~-3-0~~~~~~~~~~~~~-|

Lixx
D-----------------------------|
A-17brb~~~--------------------|
F----------------7------------|~~-sustain
C----------17\----------------|
G----------17\ps--------------|
C----------17\----------------|




Tap to rate this tab
# A B C D E F G H I J K L M N O P Q R S T U V W X Y Z