Song name
# A B C D E F G H I J K L M N O P Q R S T U V W X Y Z

Rev Theory - Far From Over tab

                        |----REV THEORY---|
                        |--FAR FROM OVER--|
                        |-------TAB-------|
TUNING: Drop D 1 Step Down (CGCFAD)
Tabbed by Soxbearsjr

Two guitars used         
Guitar 1: Rhythm
Guitar 2: Lead

INTRO: (Guitar 1)                                             V
e|------------------------------------------|   e|----------------|
B|------------------------------------------|   B|----------------|
G|--10--10--9-9-9---12--12---10-10-10-10----|X3 G|--10-10-10--9---|
D|---x---x--x-x-x----x---x----x--x--x--x----|   D|---x--x--x--x---|
A|---8---8--7-7-7---10--10----8--8--8--8----|   A|---8--8--8--7---|
E|------------------------------------------|   E|----------------|

INTRO: (Guitar 2)
e|---------------------------------------------------------------------|
B|-----13----11--10--------13----11--10------13----11--10--10-10-10-9--|
G|--10------------------10----------------10---------------------------|
D|---------------------------------------------------------------------|
A|---------------------------------------------------------------------|
E|---------------------------------------------------------------------|

Main Riff ( Guitars 1&2 )
e|-------------------------------|
B|-------------------------------|
G|--------7----------------------|
D|--0--0--7-0-0------------------|X4
A|--0--0--5-0-0---8-7-0-5-7-8----|
E|--0--0----0-0---8-7-0-5-7-8----|

Verse: (Guitar 1)
STRUM THESE CHORDS 
e|-------------------|
B|--3---6---11---8---| 
G|--2---5---10---7---|
D|--0---3---8----5---|
A|--0---3---8----5---|
E|--0---3---8----5---|

Verse: (Guitar 2)(With tremelo)
e|-------------------------------------|
B|--3---------6--------11----------8---|
G|-------------------------------------|
D|-------------------------------------|
A|-------------------------------------|
E|-------------------------------------|

Verse: ( Guitar 2 )
During "What if I could feel..." part
           v                v                               v
e|--------------------------------------------------------------|
B|----------------------------------------------------------13--|
G|--9--10--7----10--9--10-------10--9--10--/14---10--9--10------|
D|--------------------------9-----------------------------------|
A|--------------------------------------------------------------|
E|--------------------------------------------------------------|

Pre-Chorus: (Guitar 1)
e|---------------------------------|   e|----------------|
B|---------------------------------|   B|----------------|
G|---------------------------------|   G|----------------|
D|--8--8---x--x-x---8-7-0-5-7-8-8--|X2 D|--10--10--10----|
A|--8--8---x--x-x---8-7-0-5-7-8-8--|   A|--10--10--10----|
E|--8--8---x--x-x---8-7-0-5-7-8-8--|   E|--10--10--10----|
                                         "Cause this is"

Pre Chorus: (Guitar 2)
e|-------------------------------------------------------|
B|-------------------------------------------------------|
G|---------9-9-9-9-10-10-10-10-12-12-12-12-14-14-14-14---|
D|--8--8---x-x-x-x--x--x--x--x--x--x--x--x--x--x--x--x---|
A|--8--8---7-7-7-7--8--8--8--8-10-10-10-10-12-12-12-12---|
E|--8--8-------------------------------------------------|

Chorus: (Guitar 1)
e|-------------------------------------------------------------------------|
B|-------------------------------------------------------------------------|
G|------------------------------------------------------------5-5-5-7-7-7--|
D|--0--3---/8--7---10--10--10--10--10---0--3--/8--7--5--5--5--5-5-5-7-7-7--|
A|--0--3---/8--7---10--10--10--10--10---0--3--/8--7--5--5--5--3-3-3-5-5-5--|
E|--0--3---/8--7---10--10--10--10--10---0--3--/8--7--5--5--5---------------|

Chorus: (Guitar 2)
e|-------------------------------------------------|
B|-----13-13-13-13-13-13-11-11-11-11-10-10-10-10---|
G|--10---------------------------------------------|
D|-------------------------------------------------|
A|-------------------------------------------------|
E|-------------------------------------------------|

Go back and play:
-------------------
Main Riff
Verse
Pre-Chorus
Chorus                      <--Go back and play this again <--
                         /--------------------------------\              
Solo: (Guitar 1)        /                                  \
e|---------------------------|  |-----------------------|--------------|
B|---------------------------|  |-----------------------|--------------|
G|---------------------------|  |-----------------------|--------------|
D|--8--8--8--8---0--0--0--0--|X2|--0--2--3--5--7--------|--10--10--10--|
A|--8--8--8--8---0--0--0--0--|  |--0--2--3--5--7--------|--10--10--10--|
E|--8--8--8--8---0--0--0--0--|  |--0--2--3--5--7--------|--10--10--10--|

Solo: (Guitar 2)
                   br          br           b
e|--------------------|    e|------------------|
B|-----------13----10-|    B|--8---6-5-3-------|
G|-----10-------------|    G|------------5--5--|
D|--12----12----------|X3  D|------------------|
A|--------------------|    A|------------------|
E|--------------------|    E|------------------|

                                                                      br  v
e|-----------17----------|   e|---------------------------------------------|
B|--15-18-15----18-15-18-|   B|--17-17-17-17-18-18-18-18-20-20-20-20--17-15-|
G|-----------------------|X3 G|---------------------------------------------|
D|-----------------------|   D|---------------------------------------------|
A|-----------------------|   A|---------------------------------------------|
E|-----------------------|   E|---------------------------------------------|

Go back and play:
-----------------
Intro part
Chorus
Main Riff
   

 KEY
--------------------------|
                          |
V  - Vibrato              |
/  - Slide up to note     |
\  - Slide down to note   |
x  - mute                 | 
Br - Bend and release     |
B  - Bend                 |
                          |
--------------------------| 
Tap to rate this tab
# A B C D E F G H I J K L M N O P Q R S T U V W X Y Z