Song name
# A B C D E F G H I J K L M N O P Q R S T U V W X Y Z

Rev Theory - Light It Up tab

Light It Up Solo - Rev Theory
Tuning - Drop C low to high (CGCFAD)

D-----------------------------------------------------------------------|
A--------------------------------------------------------------tp-------|
F-15-13-13-13-15-13-13-13-15-13-13-13-15-13-13-13-15-13-13-13-17\9------|
C-----------------------------------------------------------------------|
G-----------------------------------------------------------------------|
C-----------------------------------------------------------------------|

D----------------------------------------------------------------------------|
A---------------------------------13-15b-15b-15b-15br--13-15b--13-14-15------|
F-12*br~--10-13-13-9-12-12--13-15--------------------------------------------|
C----------------------------------------------------------------------------|
G----------------------------------------------------------------------------|
C----------------------------------------------------------------------------|

D-------------------------14-15-16-18----------------------------------------|
A-17br--13~--13-14-15-17b--------------17~--15-17b-151617b~----15h17--15~----|
F----------------------------------------------------------------------------|
C----------------------------------------------------------------------------|
G----------------------------------------------------------------------------|
C----------------------------------------------------------------------------|

b - bend (all bends on this solo are half bends)
r - release that bend
* - pinched harmonic
tp - tremolo picking
h - hammer on
~ - vibrato
Listen to the song closely as you play it.  It sounds better that way. I hope its all 
cuz I tried to get what other tabs didnt have.
Tap to rate this tab
# A B C D E F G H I J K L M N O P Q R S T U V W X Y Z