Song name
# A B C D E F G H I J K L M N O P Q R S T U V W X Y Z

Rev Theory - Favorite Disease tab

Hello ,it's my first tab ...

1|------------------|
2|------------------|
3|------------------|
4|------------------| x8
5|-4-4-4-4-4-4-4-4--|
6|------------------|

1|---------------------------------------------------------------------|
2|---------------------------------------------------------------------|
3|---------------------------------------------------------------- x 2-|
4|-6-6-6-6-6-6-6-6-----------------9-9-9-9-9-9-9-9---------------------|
5|-4-4-4-4-4-4-4-4-7-7-7-7-7-7-7-7-7-7-7-7-7-7-7-7-9-9-9-9-9-9-9-9-----|
6|-----------------5-5-5-5-5-5-5-5-----------------7-7-7-7-7-7-7-7-----|

1|---------------------------|
2|---------------------------|
3|---------------------- x 4-|
4|-6-4-6---------------------|
5|-4-2-4-5-5-5-5-4-4-4-4-----|
6|-------3-3-3-3-2-2-2-2-----|

1|------------------------------------------------------------------|
2|------------------------------------------------------------------|
3|------------------------------------------------------------------|
4|-------------------4-----------------------------------4----------|
5|-6--------2--------2--------4--------6--------2--------2--------5-|
6|-4--------0-----------------2--------4--------0-----------------3-|

1|-----------------------------------------------------------------|
2|-----------------------------------------------------------------|
3|-----------------------------------------------------------------|
4|-6-6-6-6-6-6-6-6-----------------9-9-9-9-9-9-9-9-----------------|
5|-4-4-4-4-4-4-4-4-7-7-7-7-7-7-7-7-7-7-7-7-7-7-7-7-9-9-9-9-9-9-9-9-|
6|-----------------5-5-5-5-5-5-5-5-----------------7-7-7-7-7-7-7-7-|

1|---------------------------------------------------|
2|---------------------------------------------------|
3|---------------------------------------------------|
4|-6-6-6-6-6-6-6-6-----------------9-9-9-9-9-9-9-9---|
5|-4-4-4-4-4-4-4-4-7-7-7-7-7-7-7-7-7-7-7-7-7-7-7-7-9-|
6|-----------------5-5-5-5-5-5-5-5-----------------7-|


1|----------------------------------------------------------------------|
2|----------------------------------------------------------------------|
3|----------------------------------------------------------------- x 2-|
4|-------------------4-----------------------------------4--------------|
5|-6--------2--------2--------4--------6--------2--------2--------5-----|
6|-4--------0-----------------2--------4--------0-----------------3-----|

1|-----------------------------------------------------------------|
2|-----------------------------------------------------------------|
3|-----------------------------------------------------------------|
4|-6-6-6-6-6-6-6-6-----------------9-9-9-9-9-9-9-9-----------------|
5|-4-4-4-4-4-4-4-4-7-7-7-7-7-7-7-7-7-7-7-7-7-7-7-7-9-9-9-9-9-9-9-9-|
6|-----------------5-5-5-5-5-5-5-5-----------------7-7-7-7-7-7-7-7-|

1|---------------------------------------------------|
2|---------------------------------------------------|
3|---------------------------------------------------|
4|-6-6-6-6-6-6-6-6-----------------9-9-9-9-9-9-9-9---|
5|-4-4-4-4-4-4-4-4-7-7-7-7-7-7-7-7-7-7-7-7-7-7-7-7-9-|
6|-----------------5-5-5-5-5-5-5-5-----------------7-|

1|----------------------------------------------------------------------|
2|----------------------------------------------------------------------|
3|----------------------------------------------------------------- x 2-|
4|-------------------4-----------------------------------4--------------|
5|-6--------2--------2--------4--------6--------2--------2--------5-----|
6|-4--------0-----------------2--------4--------0-----------------3-----|

1|---------------------|
2|---------------------|
3|---------------------|
4|---------------------|
5|-7-7-4-4-7-7-9-9-8-8-|
6|-5-5-2-2-5-5-7-7-6-6-|


1|---------------------------------------------------------------------|
2|---------------------------------------------------------------------|
3|---------------------------------------------------------------- x 9-|
4|-6-6-6-6-6-6-6-6-----------------9-9-9-9-9-9-9-9---------------------|
5|-4-4-4-4-4-4-4-4-7-7-7-7-7-7-7-7-7-7-7-7-7-7-7-7-9-9-9-9-9-9-9-9-----|
6|-----------------5-5-5-5-5-5-5-5-----------------7-7-7-7-7-7-7-7-----|

1|---------------------------------------------------|
2|---------------------------------------------------|
3|---------------------------------------------------|
4|-6-6-6-6-6-6-6-6-----------------9-9-9-9-9-9-9-9---|
5|-4-4-4-4-4-4-4-4-7-7-7-7-7-7-7-7-7-7-7-7-7-7-7-7-9-|
6|-----------------5-5-5-5-5-5-5-5-----------------7-|

YOU ARE MY FAVORITE DISEASE !!

Good luck
Tap to rate this tab
# A B C D E F G H I J K L M N O P Q R S T U V W X Y Z