Rev Theory - Wicked Wonderland tab

                    Wicked Wonderland/Rev Theory/Justice
Tabbed by: grentis
Tuning: drop D (DADGBE)
PLEASE RATE AND/OR LEAVE FEEDBACK!!!  I would really appreciate it!

b -- bend
r -- release
h -- hammer-on
p -- pull-off
~ -- vibrato
. -- palm mute
/ -- slide up/down
NH -- natural harmonic
PH -- pinch harmonic

*Sorry if the spacing is a little bit off for some parts...

INTRO:
(If this first part doesn't make sense,
it should when you listen to the song.)
Guitar 1
E-------------------------------------------------|
B-------------------------------------------------|
G-4b(5)(4)(5)(4)(5)(4)(5)(4)(5)(4)(5)(4)(5)(4)(5)-
D-------------------------------------------------|
A-------------------------------------------------|
D-------------------------------------------------|

Guitar 2
E-7b(8)(7)(8)(7)(8)(7)(8)(7)(8)(7)(8)(7)(8)(7)(8)-
B-------------------------------------------------|
G-------------------------------------------------|
D-------------------------------------------------|
A-------------------------------------------------|
D-------------------------------------------------|

Guitar 1
E-------------------------------------------------
B-4b(5)(4)(5)(4)(5)(4)(5)(4)(5)(4)(5)(4)(5)(4)(5)-
G-------------------------------------------------|
D-------------------------------------------------|
A-------------------------------------------------|
D-------------------------------------------------|

Guitar 2
E-12b(13)(12)(13)(12)(13)(12)(13)(12)(13)(12)(13)(12)(13)(12)(13)-
B-----------------------------------------------------------------|
G-----------------------------------------------------------------|
D-----------------------------------------------------------------|
A-----------------------------------------------------------------|
D-----------------------------------------------------------------|

Guitar 1
E-------------------------------------------------|
B-------------------------------------------------|
G-4b(5)(4)(5)(4)(5)(4)(5)(4)(5)(4)(5)(4)(5)(4)(5)-
D-------------------------------------------------|
A-------------------------------------------------|
D-------------------------------------------------|

Guitar 2
E-7b(8)(7)(8)(7)(8)(7)(8)(7)(8)(7)(8)(7)(8)(7)(8)-
B-------------------------------------------------|
G-------------------------------------------------|
D-------------------------------------------------|
A-------------------------------------------------|
D-------------------------------------------------|

Guitar 1
E-------------------------------------------------|
B-------------------------------------------------|
G-4b(5)(4)(5)(4)(5)(4)(5)(4)(5)(4)(5)(4)(5)(4)(5)-
D-------------------------------------------------|
A-------------------------------------------------|
D-------------------------------------------------|

Guitar 2
E-12b(13)(12)(13)(12)(13)(12)(13)(12)(13)(12)(13)(12)(13)(12)(13)-
B-----------------------------------------------------------------|
G-----------------------------------------------------------------|
D-----------------------------------------------------------------|
A-----------------------------------------------------------------|
D-----------------------------------------------------------------|

Guitar 1
E-------------------------------------------------|
B-------------------------------------------------|
G-4b(5)(4)(5)(4)(5)(4)(5)(4)(5)(4)(5)(4)(5)(4)(5)-
D-------------------------------------------------|
A-------------------------------------------------|
D-------------------------------------------------|

Guitar 2
E-7b(8)(7)(8)(7)(8)(7)(8)(7)(8)(7)(8)(7)(8)(7)(8)-
B-------------------------------------------------|
G-------------------------------------------------|
D-------------------------------------------------|
A-------------------------------------------------|
D-------------------------------------------------|

Guitar 1
E-------------------------------------------------|
B-------------------------------------------------|
G-4b(5)(4)(5)(4)(5)(4)(5)(4)----------------------|
D-------------------------------------------------|
A-------------------------------------------------|
D-------------------------------------------------|

Guitar 2
E-12b(13)(12)(13)(12)(13)(12)(13)(12)-----------------------------|
B-----------------------------------------------------------------|
G-----------------------------------------------------------------|
D-----------------------------------------------------------------|
A-----------------------------------------------------------------|
D-----------------------------------------------------------------|

MAIN RIFF:
Guitar 1 & 2
E---------------------------------|
B---------------------------------|
G---------------------------------|
D-2-2-5-0-2-2-5-0-2-2-5-0-8-8-8-0-|  x2
A-2-2-5-0-2-2-5-0-2-2-5-0-8-8-8-0-|
D-2-2-5-0-2-2-5-0-2-2-5-0-8-8-8-0-|

Guitar 1
E-----------------------------------------------------------------|
B-----------------------------------------------------------------|
G-----------------------------------------------------------------|
D-2-2-5-0-2-2-5-0-2-2-5-0-8-8-8-0-2-2-5-0-2-2-5-0-8---8---7-5-2-0-|
A-2-2-5-0-2-2-5-0-2-2-5-0-8-8-8-0-2-2-5-0-2-2-5-0-8---8---7-5-2-0-|
D-2-2-5-0-2-2-5-0-2-2-5-0-8-8-8-0-2-2-5-0-2-2-5-0-8---8---7-5-2-0-|

Guitar 2
E---------8p78-7-----------6p56-5-----------8p78-7-------------------|
B-5-5-8-5----------5-5-8-5----------5-5-8-5--------------------------|
G--------------------------------------------------------------------|
D----------------------------------------------------8---8---7-5-----|
A----------------------------------------------------------------7-5-|
D--------------------------------------------------------------------|

VERSE 1:
Guitar 1
E---------------------------------|
B---------------------------------|
G---------------------------------|
D-2-2-----------------------------|
A-2-2-----------------------------|
D-2-2-----------------------------|

Guitar 2
E---------------------------------|
B---------------------------------|
G---------------------------------|
D---------------------------------|
A-7-7-----------------------------|
D---------------------------------|

Guitar 1
E---------------------------------|
B---------------------------------|
G---------------------------------|
D-2-2-5-0-2-2-5-0-2-2-5-0-8-8-8-0-|
A-2-2-5-0-2-2-5-0-2-2-5-0-8-8-8-0-|
D-2-2-5-0-2-2-5-0-2-2-5-0-8-8-8-0-|

Guitar 1
E---------------------------------|
B---------------------------------|
G---------------5*----------------|
D-2-2-----------------------------|
A-2-2-----------------------------|
D-2-2-----------------------------|
                NH

Guitar 1
E---------------------------------|
B---------------------------------|
G---------------------------------|
D-2-2-5-0-2-2-5-0-2-2-5-0-8-8-8-0-|
A-2-2-5-0-2-2-5-0-2-2-5-0-8-8-8-0-|
D-2-2-5-0-2-2-5-0-2-2-5-0-8-8-8-0-|

Guitar 1
E---------------------------------|
B---------------------------------|
G-------------------------3b(4)~~-|
D-2-2-2-2-2-2-2-2-2-2-2-2---------|
A-2-2-2-2-2-2-2-2-2-2-2-2---------|
D-2-2-2-2-2-2-2-2-2-2-2-2---------|
    PM. . . . . . . . . .

Guitar 1
E---------------------------------|
B---------------------------------|
G---------------------------------|
D-2-2-5-0-2-2-5-0-2-2-5-0-2-2-5-0-|
A-2-2-5-0-2-2-5-0-2-2-5-0-2-2-5-0-|
D-2-2-5-0-2-2-5-0-2-2-5-0-2-2-5-0-|

VERSE 2:
Guitar 1
E-----------------------------------------------------------------|
B-----------------------------------------------------------------|
G-----------------------------------------------------------------|
D-5-5-5-5-5-5-5-5-5-5-5-5-5-4-3-2---2-2-2-2-2-2-2-2-2-2-2-2-3-4-5-|
A-3-3-3-3-3-3-3-3-3-3-3-3-3-2-1-0---0-0-0-0-0-0-0-0-0-0-0-0-1-2-3-|
D-----------------------------------------------------------------|

Guitar 1
E-----------------------------------------------------------------|
B-----------------------------------------------------------------|
G-----------------------------------2-2-2-2-2-2-2-----------------|
D---5-5-5-5-5-5-5-5-5-5-5-5-4-3-2---2-2-2-2-2-2-2-x-x-x-x-x-x-x-x-|
A---3-3-3-3-3-3-3-3-3-3-3-3-2-1-0---0-0-0-0-0-0-0-x-x-x-x-x-x-x-x-|
D-------------------------------------------------x-x-x-x-x-x-x-x-|

PRE-CHORUS RIFF:
Guitar 1
E---------------------------------|
B---------------------------------|
G---------------------------------|
D-2-2---0-2-2---0-2-2-5-5-4-4-3-3-|  x3
A-2-2---0-2-2---0-2-2-5-5-4-4-3-3-|
D-2-2---0-2-2---0-2-2-5-5-4-4-3-3-|

Guitar 2
E---------------------------------|
B-5-5---3/5-5---3/5-5-8-8-7-7-6-6-|
G---------------------------------|
D---------------------------------|  x3
A---------------------------------|
D---------------------------------|

Guitar 1
E---------------------------------|
B---------------------------------|
G---------------------------------|
D-4/5-4/5-4/5-4/5-4---------------|
A-2-3-2-3-2-3-2-3-2---------------|
D---------------------------------|

Guitar 2
E-7b(8)(7)(8)(7)(8)(7)(8)(7)------|
B---------------------------------|
G---------------------------------|
D---------------------------------|
A---------------------------------|
D---------------------------------|

CHORUS:
Guitar 1
E-----------------------------------------------------------------|
B-----------------------------------------------------------------|
G-----------------------------------------------------------------|
D-2-2-5-0-2-2-5-0-2-2-5-0-8-8-8-0-2-2-5-0-2-2-5-0-8---8---7-5-2-0-|
A-2-2-5-0-2-2-5-0-2-2-5-0-8-8-8-0-2-2-5-0-2-2-5-0-8---8---7-5-2-0-|
D-2-2-5-0-2-2-5-0-2-2-5-0-8-8-8-0-2-2-5-0-2-2-5-0-8---8---7-5-2-0-|

Guitar 2
E---------8p78-7-----------6p56-5-----------8p78-7-------------------|
B-5-5-8-5----------5-5-8-5----------5-5-8-5--------------------------|
G--------------------------------------------------------------------|
D----------------------------------------------------8---8---7-5-----|
A----------------------------------------------------------------7-5-|
D--------------------------------------------------------------------|

VERSE 1 (rep.):
Guitar 1
E---------------------------------|
B---------------------------------|
G---------------------------------|
D-2-2-----------------------------|
A-2-2-----------------------------|
D-2-2-----------------------------|

Guitar 2
E---------------------------------|
B---------------------------------|
G---------------------------------|
D---------------------------------|
A-7-7-----------------------------|
D---------------------------------|

Guitar 1
E---------------------------------|
B---------------------------------|
G---------------------------------|
D-2-2-5-0-2-2-5-0-2-2-5-0-8-8-8-0-|
A-2-2-5-0-2-2-5-0-2-2-5-0-8-8-8-0-|
D-2-2-5-0-2-2-5-0-2-2-5-0-8-8-8-0-|

Guitar 1
E---------------------------------|
B---------------------------------|
G---------------5*----------------|
D-2-2-----------------------------|
A-2-2-----------------------------|
D-2-2-----------------------------|
                NH

Guitar 1
E---------------------------------|
B---------------------------------|
G---------------------------------|
D-2-2-5-0-2-2-5-0-2-2-5-0-8-8-8-0-|
A-2-2-5-0-2-2-5-0-2-2-5-0-8-8-8-0-|
D-2-2-5-0-2-2-5-0-2-2-5-0-8-8-8-0-|

Guitar 1
E---------------------------------|
B---------------------------------|
G-------------------------3b(4)~~-|
D-2-2-2-2-2-2-2-2-2-2-2-2---------|
A-2-2-2-2-2-2-2-2-2-2-2-2---------|
D-2-2-2-2-2-2-2-2-2-2-2-2---------|
    PM. . . . . . . . . .

Guitar 1
E---------------------------------|
B---------------------------------|
G---------------------------------|
D-2-2-5-0-2-2-5-0-2-2-5-0-2-2-5-0-|
A-2-2-5-0-2-2-5-0-2-2-5-0-2-2-5-0-|
D-2-2-5-0-2-2-5-0-2-2-5-0-2-2-5-0-|

VERSE 2 (rep.):
Guitar 1
E-----------------------------------------------------------------|
B-----------------------------------------------------------------|
G-----------------------------------------------------------------|
D-5-5-5-5-5-5-5-5-5-5-5-5-5-4-3-2---2-2-2-2-2-2-2-2-2-2-2-2-3-4-5-|
A-3-3-3-3-3-3-3-3-3-3-3-3-3-2-1-0---0-0-0-0-0-0-0-0-0-0-0-0-1-2-3-|
D-----------------------------------------------------------------|

Guitar 1
E-----------------------------------------------------------------|
B-----------------------------------------------------------------|
G-----------------------------------2-2-2-2-2-2-2-----------------|
D---5-5-5-5-5-5-5-5-5-5-5-5-4-3-2---2-2-2-2-2-2-2-x-x-x-x-x-x-x-x-|
A---3-3-3-3-3-3-3-3-3-3-3-3-2-1-0---0-0-0-0-0-0-0-x-x-x-x-x-x-x-x-|
D-------------------------------------------------x-x-x-x-x-x-x-x-|

PRE-CHORUS RIFF (rep.):
Guitar 1
E---------------------------------|
B---------------------------------|
G---------------------------------|
D-2-2---0-2-2---0-2-2-5-5-4-4-3-3-|  x3
A-2-2---0-2-2---0-2-2-5-5-4-4-3-3-|
D-2-2---0-2-2---0-2-2-5-5-4-4-3-3-|

Guitar 2
E---------------------------------|
B-5-5---3/5-5---3/5-5-8-8-7-7-6-6-|
G---------------------------------|
D---------------------------------|  x3
A---------------------------------|
D---------------------------------|

Guitar 1
E---------------------------------|
B---------------------------------|
G---------------------------------|
D-4/5-4/5-4/5-4/5-4---------------|
A-2-3-2-3-2-3-2-3-2---------------|
D---------------------------------|

Guitar 2
E-7b(8)(7)(8)(7)(8)(7)(8)(7)------|
B---------------------------------|
G---------------------------------|
D---------------------------------|
A---------------------------------|
D---------------------------------|

BRIDGE:
Guitar 1
E-----------------------------------------------------------------|
B-----------------------------------------------------------------|
G-----------------------------------------------------------------|
D-6-6-6-6-6-6-6-6-6/7-7-7-7/3-3-3-3-0-0-0-0-0-0-0-0-0-0-0-0-0-0-0-|  x2
A-6-6-6-6-6-6-6-6-6/7-7-7-7/3-3-3-3-0-0-0-0-0-0-0-0-0-0-0-0-0-0-0-|
D-6-6-6-6-6-6-6-6-6/7-7-7-7/3-3-3-3-0-0-0-0-0-0-0-0-0-0-0-0-0-0-0-|

Guitar 2
(I'm not 100% sure about the super-fast picking but it sounds alright.
FYI: for the fast part, all the notes are double digits except the 9th fret note.)
E-------------------------------------17161514161514131514131214131211131211101211109-|
B-9~~-------------9/10----10/6----6/3-------------------------------------------------|
G-------------------------------------------------------------------------------------|
D-------------------------------------------------------------------------------------|  x2
A-------------------------------------------------------------------------------------|
D-------------------------------------------------------------------------------------|

SOLO:
Guitar 1
E----------------------------------------------------------------|
B-----3---3---3/5---5---/17~~~-----------------------------------|
G-----2---2---2/4--------------------9---7-----------------------|
D--------------------------------------------7b(8r7)-------------|
A----------------------------------------------------0-----------|
D--------------------------------------------------------5-2~~~~-|

E-----------------------------------------|
B-7-7---8---9---10-----/15-17-15b(16)-----|
G-7-7-7-7-7-7-7-7-------------------------|
D-----------------------------------------|
A-----------------------------------------|
D-----------------------------------------|
    PM.   .   .

E---------------------------------------------------------17b(18)-|
B-17p15p12-17-17p15p12-17-17p15p12-17-17p15p12-17-17p15p12--------|
G-----------------------------------------------------------------|
D-----------------------------------------------------------------|
A-----------------------------------------------------------------|
D-----------------------------------------------------------------|

Guitar 2
E-----------------------------------------------------------------|
B-----------------------------------------------------------------|
G-----------------------------------------------------------------|
D-2-2-x-x-x-0-2-0-5-5-x-x-x-2-5-7-0-0-x-x-x-0-2-0-2-2-5-0-2-2-5-0-|  x2
A-2-2-x-x-x-0-2-0-5-5-x-x-x-2-5-7-0-0-x-x-x-0-2-0-2-2-5-0-2-2-5-0-|
D-2-2-x-x-x-0-2-0-5-5-x-x-x-2-5-7-0-0-x-x-x-0-2-0-2-2-5-0-2-2-5-0-|

VERSE 2 (rep.):
Guitar 1
E-----------------------------------------------------------------|
B-----------------------------------------------------------------|
G-----------------------------------------------------------------|
D-5-5-5-5-5-5-5-5-5-5-5-5-5-4-3-2---2-2-2-2-2-2-2-2-2-2-2-2-3-4-5-|
A-3-3-3-3-3-3-3-3-3-3-3-3-3-2-1-0---0-0-0-0-0-0-0-0-0-0-0-0-1-2-3-|
D-----------------------------------------------------------------|

Guitar 2
E-----------12----------------------------------------------------|
B-12b(13)------(13)---------(r12)---------------------------------|
G-----------------------------------6---------/2*-----------------|
D-----------------------------------------------------------------|
A-----------------------------------------------------------------|
D-----------------------------------------------------------------|
                                               PH

Guitar 1
E-----------------------------------------------------------------|
B-----------------------------------------------------------------|
G-----------------------------------2-2-2-2-2-2-2-----------------|
D---5-5-5-5-5-5-5-5-5-5-5-5-4-3-2---2-2-2-2-2-2-2-x-x-x-x-x-x-x-x-|
A---3-3-3-3-3-3-3-3-3-3-3-3-2-1-0---0-0-0-0-0-0-0-x-x-x-x-x-x-x-x-|
D-------------------------------------------------x-x-x-x-x-x-x-x-|

Guitar 2
(I'm also not 100% sure about this part... one reason's cuz my guitar only
has 21 frets, and cuz it's not as audible as the chords being played over it.)
E-----------12-----------------------------------13-13-13-13-/22/-|
B-12b(13)------12b(13)~~~---(13r12)-12b(13)-(13)------------------|
G-----------------------------------------------------------------|
D-----------------------------------------------------------------|
A-----------------------------------------------------------------|
D-----------------------------------------------------------------|

PRE-CHORUS RIFF (rep.):
Guitar 1
E---------------------------------|
B---------------------------------|
G---------------------------------|
D-2-2---0-2-2---0-2-2-5-5-4-4-3-3-|  x3
A-2-2---0-2-2---0-2-2-5-5-4-4-3-3-|
D-2-2---0-2-2---0-2-2-5-5-4-4-3-3-|

Guitar 2
E---------------------------------|
B-5-5---3/5-5---3/5-5-8-8-7-7-6-6-|
G---------------------------------|
D---------------------------------|  x3
A---------------------------------|
D---------------------------------|

Guitar 1
E---------------------------------|
B---------------------------------|
G---------------------------------|
D-4/5-4/5-4/5-4/5-4---------------|
A-2-3-2-3-2-3-2-3-2---------------|
D---------------------------------|

Guitar 2
E-7b(8)(7)(8)(7)(8)(7)(8)(7)------|
B---------------------------------|
G---------------------------------|
D---------------------------------|
A---------------------------------|
D---------------------------------|

CHORUS (drum change):
Guitar 1
E---------------------------------|
B---------------------------------|
G---------------------------------|
D-2-2-5-0-2-2-5-0-2-2-5-0-8-8-8-0-|  x3
A-2-2-5-0-2-2-5-0-2-2-5-0-8-8-8-0-|
D-2-2-5-0-2-2-5-0-2-2-5-0-8-8-8-0-|

Guitar 2
E---------8p78-7-----------6p56-5-|
B-5-5-8-5----------5-5-8-5--------|
G---------------------------------|
D---------------------------------|  x3
A---------------------------------|
D---------------------------------|

Guitar 1
E-------------------------------------|
B-------------------------------------|
G-------------------------------------|
D-2-2-5-0-2-2-5-0-8---8---7-5-2-0-2-2-|
A-2-2-5-0-2-2-5-0-8---8---7-5-2-0-2-2-|
D-2-2-5-0-2-2-5-0-8---8---7-5-2-0-2-2-|

Guitar 2
E---------8p78-7-----------------------|
B-5-5-8-5------------------------------|
G--------------------------------------|
D------------------8---8---7-5---------|
A------------------------------7-5-7-7-|
D--------------------------------------|

PLEASE RATE AND/OR COMMENT!!!
HOPE THIS HELPED YOU!!!!!!
Tap to rate this tab
 
# A B C D E F G H I J K L M N O P Q R S T U V W X Y Z