Guitaretab - guitar tabs
Song name
# A B C D E F G H I J K L M N O P Q R S T U V W X Y Z

Revelation Theory - Slowburn tab

Intro
(clean with light palm mute)

Intro 1
Eb)---------------------------------|
Bb)---------------------------------|
Gb)---------------------------------|
Db)---------------------------------|
Ab)---------------------------------|
Db)0--0-7-0-7-8-8----0--0-8-0-8-7-7-|   2x more; on the fourth one rest where the second 
is

Intro 2
(with distortion)
Eb)---------------------------------|
Bb)---------------------------------|
Gb)---------------------------------|
Db)0--0-7-0-7-8-8----0--0-8-0-8-7-7-|
Ab)0--0-7-0-7-8-8----0--0-8-0-8-7-7-|
Db)0--0-7-0-7-8-8----0--0-8-0-8-7-7-|   2x more; same here, rest on the second 7 on the 
measure

-----------------------------------------------------------

Verses
(clean or distorted, doesnít matter itís all harmonics)

Verse (harmonics, play harmonics)
Eb)-----------------------------------------------------|
Bb)-----------------------------------------------------|(just makin sure
Gb)---------------------------------7-------------------|you know that
Db)-------------------------7-------------------------7-|these are
Ab)-7---------------------------------------------------|harmonics :P)
Db)-----------------------------------------------------|

Repeat 2x more (you donít play it a fourth time before the Pre chorus)

*Play them with low volume, after he plays the last D string harmonic he pulls up on a
bar until the sound fades.

*The rests in between are easy to hear in the song, and obviously youíve heard the song
you trying to learn it.

*the second verse he only plays the A string harmonic only, and he plays it just once.
-----------------------------------------------------------

Pre Chorus
(with same distortion as intro)

P.C.
Eb)--------------------------------|
Bb)--------------------------------|
Gb)--------------------------------|
Db)-8-8-8---8-8-8---8-8-8---8-8-8--|
Ab)-8-8-8---8-8-8---8-8-8---8-8-8--|
Db)-8-8-8---8-8-8---8-8-8---8-8-8--|

Eb)------------------------------------------|
Bb)------------------------------------------|
Gb)------------------------------------------|
Db)-7-7-7---7-7-7---10-10-10-10-10b*---------|
Ab)-7-7-7---7-7-7---10-10-10-10-10b*---------|
Db)-7-7-7---7-7-7---10-10-10-10-10b*---------|

*When you bend, bend it high enough so it matches the 11th fret.

-----------------------------------------------------------

Chorus
(same distortion)

Chorus
Eb)------------------------------------------|
Bb)------------------------------------------|
Gb)------------------------------------------|
Db)-8\--0---0-0-3--3--3-3-8\--0--0-8-8-8-7-*-|
Ab)-8\--0---0-0-3--3--3-3-8\--0--0-8-8-8-7-*-|
Db)-8\--0---0-0-3--3--3-3-8\--0--0-8-8-8-7-*-|

Eb)-------------------------------------------------------|
Bb)-------------------------------------------------------|
Gb)-------------------------------------------------------|
Db)-8\--0---0-0-3--3--3-3--7-7-7-7-7-7-7-7-8-8-8-8-h10----|
Ab)-8\--0---0-0-3--3--3-3--7-7-7-7-7-7-7-7-8-8-8-8-h10----|
Db)-8\--0---0-0-3--3--3-3--7-7-7-7-7-7-7-7-8-8-8-8-h10----|

The asterisk(*) marks a rest mark where the guitarist gives a loose mute just for a
effect, and its almost a slide its so shallow. But on the last chorus itís a complete mute
he completely cuts the notes off.

---------------------------------------------------------

Interlude
(distorted)

Inter. Start
Eb)------|
Bb)------|
Gb)------|
Db)0-----|
Ab)0-----|
Db)0-----|   Let this ring until the Bass gig is done.

Inter. 1
(Inter. 1 Sec. 1)
Eb)---------------------------------|
Bb)---------------------------------|
Gb)---------------------------------|
Db)-0-0-0---0-0-0---0-0-0---0-0-0---|
Ab)-0-0-0---0-0-0---0-0-0---0-0-0---|
Db)-0-0-0---0-0-0---0-0-0---0-0-0---|
[ Tab from: http://www.guitaretab.com/r/revelation-theory/146825.html ]
(Inter. 1 Sec. 2)
Eb)---------------------------------|
Bb)---------------------------------|
Gb)---------------------------------|
Db)-0-0-0---0-0-0---0-0-0---8-8-8-8-|
Ab)-0-0-0---0-0-0---0-0-0---8-8-8-8-|
Db)-0-0-0---0-0-0---0-0-0---8-8-8-8-|  Repeat this again then:

Inter. 2
Eb)---------------------------------|
Bb)---------------------------------|
Gb)---------7-----------7-----------|
Db)-0-0-0-0-x---0-0-0-0-x---8-8-8-8-|
Ab)-0-0-0-0-5---0-0-0-0-5---8-8-8-8-|
Db)-0-0-0-0-----0-0-0-0-----8-8-8-8-|  Do this 4x

Then do the Pre Chorus.

P.C.
Eb)--------------------------------|
Bb)--------------------------------|
Gb)--------------------------------|
Db)-8-8-8---8-8-8---8-8-8---8-8-8--|
Ab)-8-8-8---8-8-8---8-8-8---8-8-8--|
Db)-8-8-8---8-8-8---8-8-8---8-8-8--|

Eb)------------------------------------------|
Bb)------------------------------------------|
Gb)------------------------------------------|
Db)-7-7-7---7-7-7---10-10-10-10-10b*---------|
Ab)-7-7-7---7-7-7---10-10-10-10-10b*---------|
Db)-7-7-7---7-7-7---10-10-10-10-10b*---------|

Then do Interlude Part 2 again. Except only twice this time.

Inter. 2
Eb)---------------------------------|
Bb)---------------------------------|
Gb)---------7-----------7-----------|
Db)-0-0-0-0-x---0-0-0-0-x---8-8-8-8-|
Ab)-0-0-0-0-5---0-0-0-0-5---8-8-8-8-|
Db)-0-0-0-0-----0-0-0-0-----8-8-8-8-|

Then the pre chorus again...

P.C.
Eb)--------------------------------|
Bb)--------------------------------|
Gb)--------------------------------|
Db)-8-8-8---8-8-8---8-8-8---8-8-8--|
Ab)-8-8-8---8-8-8---8-8-8---8-8-8--|
Db)-8-8-8---8-8-8---8-8-8---8-8-8--|

Eb)------------------------------------------|
Bb)------------------------------------------|
Gb)------------------------------------------|
Db)-7-7-7---7-7-7---10-10-10-10-10b*---------|
Ab)-7-7-7---7-7-7---10-10-10-10-10b*---------|
Db)-7-7-7---7-7-7---10-10-10-10-10b*---------|


-----------------------------------------------

Then you finally do the Chorus for the last time.

Chorus
Eb)------------------------------------------|
Bb)------------------------------------------|
Gb)------------------------------------------|
Db)-8\--0---0-0-3--3--3-3-8\--0--0-8-8-8-7-*-|
Ab)-8\--0---0-0-3--3--3-3-8\--0--0-8-8-8-7-*-|
Db)-8\--0---0-0-3--3--3-3-8\--0--0-8-8-8-7-*-|
Make sure to completely cut it off on the second time through the chorus at the asterisk(*).

Eb)-------------------------------------------------------|
Bb)-------------------------------------------------------|
Gb)-------------------------------------------------------|
Db)-8\--0---0-0-3--3--3-3--7-7-7-7-7-7-7-7-8-8-8-8-h10----|
Ab)-8\--0---0-0-3--3--3-3--7-7-7-7-7-7-7-7-8-8-8-8-h10----|
Db)-8\--0---0-0-3--3--3-3--7-7-7-7-7-7-7-7-8-8-8-8-h10----|

--------------------------------------------------------

Then it ends out with the second part Interlude Sec. 1.

Inter. 1 Sec.(2)
Eb)---------------------------------|
Bb)---------------------------------|
Gb)---------------------------------|
Db)-0-0-0---0-0-0---0-0-0---8-8-8-8-|
Ab)-0-0-0---0-0-0---0-0-0---8-8-8-8-|
Db)-0-0-0---0-0-0---0-0-0---8-8-8-8-|

It plays that for three times, except on the fourth time, it ends like this:

Eb)-----------------------------------|
Bb)-----------------------------------|
Gb)-----------------------------------|
Db)-0-0-0---0-0-0---0-0-0---8-8-8-8-0-|
Ab)-0-0-0---0-0-0---0-0-0---8-8-8-8-0-|
Db)-0-0-0---0-0-0---0-0-0---8-8-8-8-0-|

------------------------------------------------------

Any confusion on the song goes, all the parts are all named at the top of them to help
it:

Intro 1	(1x)
Intro 2	(1x)
Verse   	(3x) (rest on the fourth time)
P.C.    	(1x)
Chorus	(2x)
Intro 2	(1x)
Verse	(1x) (rest on the rest of the times)
P.C.	(1x)
Chorus	(2x)
Inter. Start	(1x)
Inter. 1	(2x)
Inter. 2	(4x)
P.C.	(1x)
Inter. 2	(2x)
P.C.	(1x)
Chorus	(2x)
Inter. 1 Sec. 2	(4x) (with different ending on last one)

Mostly sure Iím right on this, this is my tab so please rate and comment.
Related for Slowburn tab