Song name
# A B C D E F G H I J K L M N O P Q R S T U V W X Y Z

Reverend And The Makers - Heavyweight Champion Of The World tab

Tabed by D Blann in swansea

iv tabed this coz there is only a bass tab here at ultimate guitar and
my band wants to play it! Iv got a week to put it togeather
but here is what i got so far also trying to compansaite
for havin no keyboards.

use fx if you can.

intro

e:------------------------|
B:------------------------|
G:------------------------| this is instead of keyboards
D:----9/21 hold ----------|
A:------------------------|
E:------------------------|

verse at 25s
e:--------------------------|
B:--------------------------|
G:--------------------------|
D:-21-trill-----------------|
A:--------------------------|
E:--------------------------|

chorus: trill the chords
e:----------------|
B:----------------|
G:4444444444447766|
D:----------------|
A:2222222222225544|
E:----------------|

e:--------------------|
B:--------------------|
G:44444444444416161616|
D:--------------------|
A:22222222222214141414|
E:--------------------|

BRIDGE:
eather play with minor bar chords or
the way i tabed it here.

e:-----------------------------|
B:-----------------------------|
G:-----------------------------|
D:9~----7~----2~---4-4--7-4-7~-|
A:-----------------------------|
E:7~----5~----0~---2-2--5-2-5~-|

e:-------------------------------|
B:-------------------------------|
G:-------------------------------|
D:9~----7~----2~---4-4--7-4-7-9--| hold the note
A:-------------------------------|
E:7~----5~----0~---2-2--5-2-5-7~-|


youll have to listen to the song to get the order but its prity strait forward.

blann
Tap to rate this tab
# A B C D E F G H I J K L M N O P Q R S T U V W X Y Z