Song name
# A B C D E F G H I J K L M N O P Q R S T U V W X Y Z

Reverend And The Makers - Sex With The Ex tab

-------------------------------------------------------------------------
			  Sex with the ex  - Reverend And The Makers
-------------------------------------------------------------------------
Tabbed by:deHufter
Email:kurtkill@hotmail.com

Tuning:standard

Intro:
e|---2-------2-------2-----2------5-----5-----5------5---------------------|
B|-----3--------3------3-----3------7-----7-----7------7-------------------|
G|-2-------2-------2-----2------5-----5-----5------5-----------------------|
D|-------------------------------------------------------------------------|
A|-------------------------------------------------------------------------|
E|-------------------------------------------------------------------------|

e|---7-----7-----7-----7-------10-------10-------10-------10---------------|
B|-----8-----8-----8-----8--------11-------11-------11-------11------------|
G|-7-----7-----7-----7-----------------------------------------------------|
D|--------------------------12-------12-------12-------12------------------|
A|-------------------------------------------------------------------------|
E|-------------------------------------------------------------------------|

Verse:
e|----2-----2-----2-----2-----2-----2-----2-----2--------------------------|
B|------3-----3-----3-----3-----1-----1-----1-----1------------------------|
G|--2-----2-----2-----2-----2-----2-----2-----2----------------------------|
D|-------------------------------------------------------------------------|
A|-------------------------------------------------------------------------|
E|-------------------------------------------------------------------------|

e|----3-----3-----3-----3-----3-----3-----3------3-------------------------|
B|------3-----3-----3-----3-----3-----3-----3------3-----------------------|
G|--4-----4-----4-----4-----3-----3-----3------3---------------------------|
D|-------------------------------------------------------------------------|
A|-------------------------------------------------------------------------|
E|-------------------------------------------------------------------------|

From 0:50 play this twice:
e|----2-----2-----2-----2-------2-----2-----2-----2------------------------|
B|------3-----3-----3-----3p2-----2-----2-----2-----2h3--------------------|
G|--2-----2-----2-----2-------2-----2-----2-----2--------------------------|
D|-------------------------------------------------------------------------|
A|-------------------------------------------------------------------------|
E|-------------------------------------------------------------------------|

Then:
e|----0-----0-----0-----0-----3-----------3--------------------------------|
B|------0-----0-----0-----0-----2----2------2---2--------------------------|
G|--0-----0-----0-----0------2-----2----2-----2----------------------------|
D|-------------------------------------------------------------------------|
A|-------------------------------------------------------------------------|
E|-------------------------------------------------------------------------|

Then repeat the lot again with slight alterations:

e|----3-----3-----3-----3-----3-----3-----5---3----------------------------|
B|------3-----3-----3-----3-----3-----3-----3---3--------------------------|
G|--4-----4-----4-----4-----3-----3-----3----------------------------------|
D|-------------------------------------------------------------------------|
A|-------------------------------------------------------------------------|
E|-------------------------------------------------------------------------|

From 2:11 pick Bm and A chord, it's hard to hear but something like this:
e|----2-------------------------0-------------2-----2----------------------|
B|------3---3-----3-----3---------2----2--------0-----0--------------------|
G|--4---------4-----4-----4--2-----------2--2-----2------------------------|
D|--------4-----4-----4--------------2-------------------------------------|
A|-------------------------------------------------------------------------|
E|-------------------------------------------------------------------------|

From 2:52 play until 3:10
e|---2-------2-------2-----2-----------------------------------------------|
B|-----3--------3------3-----3---------------------------------------------|
G|-2-------2-------2-----2-------------------------------------------------|
D|-------------------------------------------------------------------------|
A|-------------------------------------------------------------------------|
E|-------------------------------------------------------------------------|

Then until end:
e|----5------5------5------5------5------5------7---8---7------------------|
B|--7---7--7---7--7---7--7---7--7---7--7---7--7---7---7---7----------------|
G|-------------------------------------------------------------------------|
D|-------------------------------------------------------------------------|
A|-------------------------------------------------------------------------|
E|-------------------------------------------------------------------------|

C'est tout!

Enjoy!



Tap to rate this tab
# A B C D E F G H I J K L M N O P Q R S T U V W X Y Z