Song name
# A B C D E F G H I J K L M N O P Q R S T U V W X Y Z

Reverend And The Makers - Bandits tab

-----------------------------------------------------------------
			     Bandits (solo) - Midlake
----------------------------------------------------------------

Tabbed by: Luke
Email: lkchse@gmail.com

Tuning: Standard


E|---------------------------------------------------------------|
B|--12-15-12-----------------------------------------------------|
G|------------14-11-10b---------7-10b7-4-7-----------------------|
D|---------------------------------------------------------------|
A|---------------------------------------------------------------|
E|---------------------------------------------------------------|


E|---------------------------------------------------------------|
B|--------------------------10b12-10-----------------------------|
G|---------------------9-11------------------7-------------------|
D|-----4-4-7-9-12-9-12--------------------7h9-h9-7h9--------7\---|
A|-7-7--------------------------------------------------7h9----5-|
E|---------------------------------------------------------------|
Tap to rate this tab
# A B C D E F G H I J K L M N O P Q R S T U V W X Y Z