Song name
# A B C D E F G H I J K L M N O P Q R S T U V W X Y Z

Reverend Beat Man - The Lord Is Coming Back tab

Reverend beat man - The lord is coming back

Album: Get On Your Knees   
       
Tab by: Caranokol
      

e|----------------------------------------------------------------------------------|
B|-----------------------------------------1----1h3-3-------------------------------|
G|-----------0----0h2-2---(x4)--------0h2-----2-------(x2)----------0---0h2-2-(x2)--|
D|-------0h2---2-----------------0-3----------------------------0h2---2-------------|
A|--0-3-----------------------------------------------------0-3---------------------|
E|----------------------------------------------------------------------------------|
         

e|---------------------------------------------------------------------13~------11|
B|----------3----3h5-5-----------1----1h3-3---------------------------------------|
G|------3h4---4--------------0h2---2------------------0---0h2-2----/13--------13--|
D|--2-5------------------0-3----------------------0h2---2-------------------------|
A|--------------------------------------------0-3---------------------------------|
E|--------------------------------------------------------------------------------|

| /  slide up
| \  slide down
| h  hammer-on
| p  pull-off
| ~  vibrato
| +  harmonic
| x  Mute note
===============
Tap to rate this tab
# A B C D E F G H I J K L M N O P Q R S T U V W X Y Z