Song name
# A B C D E F G H I J K L M N O P Q R S T U V W X Y Z

Reverend Bizarre - Cromwell tab

Help us improve GuitareTab! Take a short survey!
cromwell by reverend bizarre

TUNE DOWN TO C# TUNING!!!!!!

main riff

-----------------------------------------|
-----------------------------------------|
-7---------------------------------------|
-7--7-8-8/10\-8--------------------------|
-5--7-8-8/10\-8--------------------------|
----5-6-6/8\--6--------------------------|

-----------------------------------------|
-----------------------------------------|
-7--10-9---9-12-11-----------------------|
-7--10-9---9-12-11-----------------------|
-5--8--7---7-10-9------------------------|
-----------------------------------------|

doom on

dinosaurjr420@hotmail.com
Related for Cromwell tab