Song name
# A B C D E F G H I J K L M N O P Q R S T U V W X Y Z

Reverend Bizarre - In The Rectory tab

REVEREND BIZARRE
"IN THE RECTORY OF THE BIZARRE REVEREND"
C# TUNING


******

"BURN IN HELL!"

******

Intro
c#|-----------------------------------------------|
G#|-----------------------------------------------|
E |-----------------------------------------------|
B |-7----9----10----------------------------------|
F#|-5----7----8----10-7----8---8-8---8\7-7--------|
C#|---------------------8--6---6-6---6\5-5--------| 2x

Lead part
c#|----------------------------------------------------------|
G#|-------------------------------11---11----11p10-10~~~~~~~-|
E |----------------------------------------------------------|
B |-12---12-12---12-12----12--12-----------------------------|
F#|----------------------------------------------------------|
C#|----------------------------------------------------------| 2x

First Riff
c#|-------------------------|
G#|-------------------------|
E |-------------------------|
B |-7----8\7---8\7---8------|
F#|-5----6\5---6\5------8---|
C#|-------------------------| 4x

Verse 1
c#|-------------------------|
G#|-------------------------|
E |-------------------------|
B |-7----8\7---8\7---8------|
F#|-5----6\5---6\5------8---|
C#|-------------------------| 8x
You're a man with thousand faces
Everyday another mask
You creep within dark places
Implementing a dreadful task
You act like man of mission
But in whom do you believe?
Don't you talk to me 'bout Jesus
'Cause every word is blasphemy

Second Riff
c#|------------------------------------|
G#|------------------------------------|
E |--------------------------7~~~~~~~~-|
B |-8------7------7--------------------|
F#|-6---------------6-5----------------|
C#|------------------------------------| 2x

Solo: Rhythm
c#|-------------------------|
G#|-------------------------|
E |-------------------------|
B |-7----8\7---8\7---8------|
F#|-5----6\5---6\5------8---|
C#|-------------------------| 4x

Solo: Lead
c#|----------------------------------------------------6------------|
G#|-------------------------------------------------------6---------|
E |-/10\--7~~~~~~~~8p7~~~------------------8p7--5h7~~~~-----5h7~~~~-|
B |----------------------8p7-5h7p5-3-5h7~~~-------------------------|
F#|-----------------------------------------------------------------|
C#|-----------------------------------------------------------------|

c#|--------------6----------------------------------------------10-----|
G#|---6-------------6-8-8h10---11p10----10p8------------11-------------|
E |-7---5h7-7~~~~--------------------12------10-------------10---------|
B |---------------------------------------------10h12------------------|
F#|--------------------------------------------------------------------|
C#|--------------------------------------------------------------------|

Verse 2
c#|-------------------------|
G#|-------------------------|
E |-------------------------|
B |-7----8\7---8\7---8------|
F#|-5----6\5---6\5------8---|
C#|-------------------------| 8x
Absorbed in your own mind
This is how you wish to be
Thinking you are one of a kind
An apostle of all misery
You speak in mystic language
Utterly with no meaning
Those who follow you
I guess they must be dreaming

Second Riff
c#|------------------------------------|
G#|------------------------------------|
E |--------------------------7~~~~~~~~-|
B |-8------7------7--------------------|
F#|-6---------------6-5----------------|
C#|------------------------------------| 2x
Let them crawl at your feet
You're a king on your Throne of Greed

Bridge
c#|--------------------------------------------|
G#|--------------------------------------------|
E |--------------------------------------------|
B |------5-----------------5----------8---8----|
F#|-5-------4------4~~5-------4-----8---8---8--|
C#|-3-----------------3------------------------| 2x

Verse 3
c#|-----------------------------------------------|
G#|-----------------------------------------------|
E |-----------------------------------------------|
B |-7----9----10----------------------------------|
F#|-5----7----8----10-7----8---8-8---8\7-7--------|
C#|---------------------8--6---6-6---6\5-5--------| 4x
Just turn your back
To the One who wept
Don't even think about
The promises unkept

c#|--------------------------------------------------| 3rd time
G#|--------------------------------------------------|
E |--------------------------------------------------|
B |-7----9---7-9-10----------------------------------|
F#|-5----7---5-7-8----10-7----8---8-8---8\7-7--------|
C#|------------------------8--6---6-6---6\5-5--------|

Verse 4
c#|---------------------------|
G#|---------------------------|
E |---------------------------|
B |-7---7-8\7--7-8\7---8------|
F#|-5---5-6\5--5-6\5------8---|
C#|---------------------------| 4x
I hope you'll burn in Hell
Because you're an evil man
Your heart belongs to the Devil
When will you understand?

Outro
c#|---------------------------|
G#|---------------------------|
E |---------------------------|
B |-7---7-8\7--7-8\7---8------|
F#|-5---5-6\5--5-6\5------8---|
C#|---------------------------| 4x

c#|-------------------|
G#|-------------------|
E |-------------------|
B |-7-----------------|
F#|-5-----------------|
C#|-------------------|
You bastard!


******

"IN THE RECTORY"

******

Intro (bass plays 1st riff 2x)
c#|------------------------|
G#|------------------------|
E |------------------------|
B |------------------------|
F#|-5tr6--------------6\---|
C#|------------------------|

First Riff
c#|--------------------------------------------|
G#|--------------------------------------------|
E |--------------------------------------------|
B |--------------------------------------------|
F#|-------------3--------6------6----5--3------|
C#|-3h--5--5-------------------------------5---| 2x

Power Chords!
c#|--------------------------------------------|
G#|--------------------------------------------|
E |--------------------------------------------|
B |-------------5--------8------8----7--5--2---|
F#|-5/--7--7----3--------6------6----5--3--0---|
C#|-3/--5--5-----------------------------------| 3x

c#|---------------------------------------------| 4th time
G#|---------------------------------------------|
E |---------------------------------------------|
B |-------------5-------------------------------|
F#|-5/--7--7----3--------5tr6--------------6\---|
C#|-3/--5--5------------------------------------|

Verse 1
c#|--------------------------------------------|
G#|--------------------------------------------|
E |--------------------------------------------|
B |--------------------------------------------|
F#|-------------3--------6------6----5--3------|
C#|-3h--5--5-------------------------------5---| 8x
Through the circle of dawn
I shall lead my race
From which I was born
At the hallowed place
Keepers of the black steel
Hiders of the flame
Our time has come
To accomplish the claim
Oh yeah!

Power Chords
c#|--------------------------------------------|
G#|--------------------------------------------|
E |--------------------------------------------|
B |-------------5--------8------8----7--5--2---|
F#|-5/--7--7----3--------6------6----5--3--0---|
C#|-3/--5--5-----------------------------------| 3x

c#|----------------------------------------| 4th time
G#|----------------------------------------|
E |----------------------------------------|
B |-------------5--------8-----------------|
F#|-5/--7--7----3--------6-----------------|
C#|-3/--5--5-------------------------------|

Verse 2
c#|--------------------------------------------|
G#|--------------------------------------------|
E |--------------------------------------------|
B |--------------------------------------------|
F#|-------------3--------6------6----5--3------|
C#|-3h--5--5-------------------------------5---| 8x
Climbing on the mountain
Reaching for the sun
Searching for the temple
Where it all began
Beholding at the cosmos
The moon is so far
You're about to meet
Reverend Bizarre!
Oh! Lord have mercy!

Power Chords
c#|--------------------------------------------|
G#|--------------------------------------------|
E |--------------------------------------------|
B |-------------5--------8------8----7--5--2---|
F#|-5/--7--7----3--------6------6----5--3--0---|
C#|-3/--5--5-----------------------------------| 3x

                            All right now!
c#|-----------------------|-------------------| 4th time
G#|-----------------------|-------------------|
E |-----------------------|-------------------|
B |--------------5--------|-8-----------------|
F#|-5/--7--7-----3--------|-6-----------------|
C#|-3/--5--5--------------|-------------------|

Second Riff
c#|---------------------------------------------------|
G#|---------------------------------------------------|
E |---------------------------------------------------|
B |-7---7-7--7--7---7-7--7--7---7-7--7--7-------------|
F#|-5---5-5--5--5---5-5--5--5---5-5--5--5--7----------|
C#|---------------------------------------------8-----| 4x

Break & Verse 3
c#|----------------------|
G#|----------------------|
E |----------------------|
B |-7--------------------|
F#|-5--------------11\---|
C#|----------------------|
We ride like a patrol of angels!

c#|------------------------------------------------------|
G#|------------------------------------------------------|
E |----------------------------------------7b--r--7b-----|
B |-7---7-7--7--7---7-7--7--7---7-7--7--7----------------|
F#|-5---5-5--5--5---5-5--5--5---5-5--5--5----------------|
C#|------------------------------------------------------|
Within a gloomy black sky!

Verse 3 (cont.)
c#||---------------------------------------------------|
G#||---------------------------------------------------|
E ||---------------------------------------------------|
B ||-7---7-7--7--7---7-7--7--7---7-7--7--7-------------|
F#||-5---5-5--5--5---5-5--5--5---5-5--5--5--7----------|
C#||---------------------------------------------8-----|

c#|------------------------------------------------------||
G#|------------------------------------------------------||
E |----------------------------------------7b--r--7b-----||
B |-7---7-7--7--7---7-7--7--7---7-7--7--7----------------||
F#|-5---5-5--5--5---5-5--5--5---5-5--5--5----------------||
C#|------------------------------------------------------|| 3x
As the course of our path changes
There is the fire where the butterflies die
Dirty runes glorify grey stones
Relics from the ancient times
Earthly worms reaping my bones
Raping flesh hiding these crimes!

Solo 1: Rhythm
c#|---------------------------------------------------|
G#|---------------------------------------------------|
E |---------------------------------------------------|
B |-7---7-7--7--7---7-7--7--7---7-7--7--7-------------|
F#|-5---5-5--5--5---5-5--5--5---5-5--5--5--7----------|
C#|---------------------------------------------8-----| 4x

Solo 1: Lead
c#|-------------------------------------------------------------------|
G#|---------------------------------------------5h6-------------------|
E |-7~7~5-7~~7-5-7~5----5--5---------5---5h7~~7----7-5---7br-7~~7-5~~-|
B |------------------7-------7-0-5h7---7---------------7--------------|
F#|-------------------------------------------------------------------|
C#|-------------------------------------------------------------------|

c#|---------------8-8~8~8~7h8p7-----------------------------------------------|
G#|-10~~~10-8h10----------------10--8---------------5h6-----------------------|
E |-----------------------------------9h10-7~7~5-7~~---7-5-7br-7~5-7b---/7\---|
B |---------------------------------------------------------------------------|
F#|---------------------------------------------------------------------------|
C#|---------------------------------------------------------------------------|

c#|---------------|
G#|---------------|
E |---------------|
B |---------------|
F#|-5~~~~~~~~~~~~-|
C#|---------------|

Verse 4
c#||---------------------------------------------------|
G#||---------------------------------------------------|
E ||---------------------------------------------------|
B ||-7---7-7--7--7---7-7--7--7---7-7--7--7-------------|
F#||-5---5-5--5--5---5-5--5--5---5-5--5--5--7----------|
C#||---------------------------------------------8-----|

c#|------------------------------------------------------||
G#|------------------------------------------------------||
E |----------------------------------------7b--r--7b-----||
B |-7---7-7--7--7---7-7--7--7---7-7--7--7----------------||
F#|-5---5-5--5--5---5-5--5--5---5-5--5--5----------------||
C#|------------------------------------------------------|| 2x
Can I hear the singing of my lover?
Or have I lost my sight?
From this sleep am I able to recover?
Or is it mine, the never-ending night?

Solo 2: Rhythm
c#|---------------------------------------------------|
G#|---------------------------------------------------|
E |---------------------------------------------------|
B |-7---7-7--7--7---7-7--7--7---7-7--7--7-------------|
F#|-5---5-5--5--5---5-5--5--5---5-5--5--5--7----------|
C#|---------------------------------------------8-----| 8x

Solo 2: Lead
c#|-----------------------------------------------------------------------|
G#|------------------------------------------------5----------------------|
E |-7~7-7-5-7~~7-5h7p5--------------5---5-7-5h7~~5--7-5---5-7br-7~~7-5~7/-|
B |--------------------7-5--7--7-5h7--7-----------------7-----------------|
F#|-----------------------------------------------------------------------|
C#|-----------------------------------------------------------------------|

c#|-------------8-8-8-8-7h8p7---------7---7-8-7-10b--8-7h8p7---------7b--8-10b---|
G#|-10-10-8h10----------------10--8h10--8--------------------10-8-10-------------|
E |------------------------------------------------------------------------------|
B |------------------------------------------------------------------------------|
F#|------------------------------------------------------------------------------|
C#|------------------------------------------------------------------------------|

c#|-10-10-8-10~~12-12-12-10-8h10p8-10b--10-8-10-10-8----10-8----10-8--|
G#|--------------------------------------------------10------10-------|
E |-------------------------------------------------------------------|
B |-------------------------------------------------------------------|
F#|-------------------------------------------------------------------|
C#|-------------------------------------------------------------------|

c#|-8h10p8-----------------------7----7-5/7-8-7-8-10-12-10-8h10p8-------|
G#|--------10-8~~8-8h10p8-10-8h10--10-----------------------------8-10--|
E |---------------------------------------------------------------------|
B |---------------------------------------------------------------------|
F#|---------------------------------------------------------------------|
C#|---------------------------------------------------------------------|

c#|-10---12--12-13--13-15--15-17--20--22~~~~~~~~~~~~~~~~~~~\-|
G#|----------------------------------------------------------|
E |----------------------------------------------------------|
B |----------------------------------------------------------|
F#|----------------------------------------------------------|
C#|----------------------------------------------------------|

Second Riff again
c#|---------------------------------------------------|
G#|---------------------------------------------------|
E |---------------------------------------------------|
B |-7---7-7--7--7---7-7--7--7---7-7--7--7-------------|
F#|-5---5-5--5--5---5-5--5--5---5-5--5--5--7----------|
C#|-5---5-5--5--5---5-5--5--5---5-5--5--5-------8-----| 4x

Third Riff
c#|------------------------------------|
G#|------------------------------------|
E |------------------------------------|
B |-7----------------5-----------------|
F#|-5----------------3-----------------|
C#|------------------------------------|

c#|---------------------------------------|
G#|---------------------------------------|
E |---------------------------------------|
B |-7-------------------5-----------------|
F#|-5------------5h7-5--3-----------------|
C#|---------------------------------------|

Verse 5
c#|---------------------------------------|
G#|---------------------------------------|
E |---------------------------------------|
B |-7-------------------5-----------------|
F#|-5------------5h7-5--3-----------------|
C#|---------------------------------------| 4x
Dance begins, won't you join me?
Middle of garden where dreams grow
Nightly forests worship your beauty
Deep inside winds won't blow
Wow!

Bridge
c#|------------------------------|
G#|------------------------------|
E |------------------------------|
B |------------------------------|
F#|--------3---3-5--3--2-3p2-----|
C#|-3h5-5----5---------------3---| 3x

c#|------------------------------| 4th time
G#|------------------------------|
E |------------------------------|
B |--------------------------4---|
F#|----------3-5-6--5--3-5p3-2---|
C#|-3h5-5--5---------------------|

Verse 6
c#|---------------------------------------|
G#|---------------------------------------|
E |---------------------------------------|
B |-7-------------------5-----------------|
F#|-5------------5h7-5--3-----------------|
C#|---------------------------------------| 4x
This is a journey to a better world
By the leaves of these flowers
Sealed gates protecting this garden
Keep on dancing for a thousand hours!
Yeah!

First Riff double-time
c#|--------------------------------------------|
G#|--------------------------------------------|
E |--------------------------------------------|
B |-------------5--------8------8----7--5--2---|
F#|-5/--7--7----3--------6------6----5--3--0---|
C#|-3/--5--5-----------------------------------| 8x

Lead part (comes in on the 5th time)
c#|--------------------------------------------|
G#|--------------------------------------------|
E |-------------5--------8------8----7--5------|
B |-5h--7--7-------------------------------7---|
F#|--------------------------------------------|
C#|--------------------------------------------| 4x

                            I love you!
c#|-----------------------|------------------------| 4th time
G#|-----------------------|------------------------|
E |-------------5---------|-7tr8--------------8\---|
B |-5h--7--7--------------|------------------------|
F#|-----------------------|------------------------|
C#|-----------------------|------------------------|

Outro
c#|------------------------------------------|
G#|------------------------------------------|
E |------------------------------------------|
B |------------------------------------------|
F#|-5/--7--7----10--------7--5---------------|
C#|-3/--5--5----8---------5--3---------------|

c#|--------------------------------------------|
G#|--------------------------------------------|
E |--------------------------------------------|
B |--------------------------------------------|
F#|-5/--7--7----10--------10--13---------------|
C#|-3/--5--5----8---------8---11---------------|

c#|------------------------------------------|
G#|------------------------------------------|
E |------------------------------------------|
B |------------------------------------------|
F#|-5/--7--7----10--------7--5---------------|
C#|-3/--5--5----8---------5--3---------------|

c#|----------------------------------|
G#|----------------------------------|
E |----------------------------------|
B |----------------------------------|
F#|-5/--7--7----10----9--2-----------|
C#|-3/--5--5----8-----7--0-----------| (slow pick scratch)
                             Ooooh


******

"THE HOUR OF DEATH"

******

Acoustic Intro
c#|---------------------------------------------------------|
G#|---------------------------------------------------------|
E |---------------------------------------------------------|
B |-------------------------7-------------------------------|
F#|-9--------5---7--------------9--------5---7--------------|
C#|---------------------------------------------------------|

c#|-------------------------------------------------------|
G#|-------------------------------------------------------|
E |-------------------------------------------------------|
B |-------------------------7-----------------------------|
F#|-9--------5---7--------------9-------------------------|
C#|-------------------------------------------------------|

c#|---------------------------------------------------------|
G#|---------------------------------------------------------|
E |---------------------------------------------------------|
B |-------------------------7-------------------------------|
F#|-9--------5---7--------------9--------5---7--------------|
C#|---------------------------------------------------------|

c#|----------------------------------------------------------|
G#|----------------------------------------------------------|
E |----------------------------------------------------------|
B |----------9---------------7-------------------------------|
F#|-9-------------7--------------9--------5---7--------------|
C#|----------------------------------------------------------| 2x

c#|-----------------------------------------------|
G#|-----------------------------------------------|
E |-----------------------------------------------|
B |-------------------------7---------------------|
F#|-9--------5---7--------------9-----------------|
C#|-----------------------------------------------|

First Riff
c#|-----------------------------------------|
G#|-----------------------------------------|
E |-----------------------------------------|
B |--------------------9-------7-5----------|
F#|-5-------7-9--------7-------5-3-------7--|
C#|-3-------5-7--------7-----------------5--| 3x

c#|-----------------------------------------| 4th time
G#|-----------------------------------------|
E |-----------------------------------------|
B |--------------------9-------7-5----------|
F#|-5-------7-9--------7-------5-3-------5--|
C#|-3-------5-7--------7-----------------3--|

Second Riff
c#||------------------------------------------------|
G#||------------------------------------------------|
E ||------------------------------------------------|
B ||-----------------------4----4/5-4--2--5--4------|
F#||-2--------2--4--5-4-2--2----2/3-2--0--------5---|
C#||-0--------0--2--3-2-0---------------------------|

c#|------------------------------------------------||
G#|------------------------------------------------||
E |--------------------------------------5--4------||
B |-----------------------4----4/5-4--2--------5---||
F#|-2--------2--4--5-4-2--2----2/3-2--0------------||
C#|-0--------0--2--3-2-0---------------------------|| 2x

"I think I must be doomed.. I don't feel at all well.."
c#|----------0---------|
G#|----------0---------|
E |--------------------|
B |--------------------|
F#|-2------------------|
C#|-0------------------|

Third Riff
c#|------------------------------------------------|
G#|------------------------------------------------|
E |------------------------------------------------|
B |-5----5--7--4--4--4--4--5----5--7--9--9--9--9---|
F#|-3----3--5--2--2--2--2--3----3--5--7--7--7--7---|
C#|------------------------------------------------| 2x

Verse 1
c#|------------------------------------------------|
G#|------------------------------------------------|
E |------------------------------------------------|
B |-5----5--7--4--4--4--4--5----5--7--9--9--9--9---|
F#|-3----3--5--2--2--2--2--3----3--5--7--7--7--7---|
C#|------------------------------------------------| 3x
My God have mercy upon me in this Hour of Death
I pray for thee to take my life instead of the one I so dearly love
Her face is pale like the ivory of the distant realms

c#|---------------------------------------------| 4th time
G#|---------------------------------------------|
E |---------------------------------------------|
B |-5----5--7--4--4--4--4--5----5--7--9---------|
F#|-3----3--5--2--2--2--2--3----3--5--7---------|
C#|---------------------------------------------|
And as I hold her hand in mine, I clearly feel it's turning cold
Like marble or snow

Second Riff
c#|------------------------------------------------|
G#|------------------------------------------------|
E |------------------------------------------------|
B |-----------------------4----4/5-4--2--5--4------|
F#|-2--------2--4--5-4-2--2----2/3-2--0--------5---|
C#|-0--------0--2--3-2-0---------------------------|

c#|------------------------------------------------|
G#|------------------------------------------------|
E |--------------------------------------5--4------|
B |-----------------------4----4/5-4--2--------5---|
F#|-2--------2--4--5-4-2--2----2/3-2--0------------|
C#|-0--------0--2--3-2-0---------------------------|

Verse 2
c#|------------------------------------------------|
G#|------------------------------------------------|
E |------------------------------------------------|
B |-5----5--7--4--4--4--4--5----5--7--9--9--9--9---|
F#|-3----3--5--2--2--2--2--3----3--5--7--7--7--7---|
C#|------------------------------------------------| 3x
Remembering the days of joy, not so long ago
Those memories just increase grief as I watch the withering of beauty
How can it be that tomorrow she's not here and I remain

c#|---------------------------------------------| 4th time
G#|---------------------------------------------|
E |---------------------------------------------|
B |-5----5--7--4--4--4--4--5----5--7--9---------|
F#|-3----3--5--2--2--2--2--3----3--5--7---------|
C#|---------------------------------------------|
There has to be some kind of way we can be together again
Together again

Second Riff
c#|------------------------------------------------|
G#|------------------------------------------------|
E |------------------------------------------------|
B |-----------------------4----4/5-4--2--5--4------|
F#|-2--------2--4--5-4-2--2----2/3-2--0--------5---|
C#|-0--------0--2--3-2-0---------------------------|

c#|------------------------------------------------|
G#|------------------------------------------------|
E |--------------------------------------5--4------|
B |-----------------------4----4/5-4--2--------5---|
F#|-2--------2--4--5-4-2--2----2/3-2--0------------|
C#|-0--------0--2--3-2-0---------------------------|

Pre-Solo
c#|------------------------------------------------|
G#|------------------------------------------------|
E |------------------------------------------------|
B |-5----5--7--4--4--4--4--5----5--7--9--9--9--9---|
F#|-3----3--5--2--2--2--2--3----3--5--7--7--7--7---|
C#|------------------------------------------------| 2x

Solo: Rhythm
c#|------------------------------------------------|
G#|------------------------------------------------|
E |------------------------------------------------|
B |-5----5--7--4--4--4--4--5----5--7--9--9--9--9---|
F#|-3----3--5--2--2--2--2--3----3--5--7--7--7--7---|
C#|------------------------------------------------|

c#|---------------------------------------------|
G#|---------------------------------------------|
E |---------------------------------------------|
B |-5----5--7--4--4--4--4--5----5--7--9---------|
F#|-3----3--5--2--2--2--2--3----3--5--7---------|
C#|---------------------------------------------|

Solo: Lead
c#|-----------------------------------------------------------|
G#|----------------------------------------------------10-12--|
E |-----------------------------------------9--11--12---------|
B |-10----10--12--9----9--7-9-10----10--12--------------------|
F#|-----------------------------------------------------------|
C#|-----------------------------------------------------------|

c#|-------------------------------------------------------------|
G#|-------------------------------------------------------------|
E |-------------------------------------------------------------|
B |-10----10--12--9----9--7-9-10--------------------------------|
F#|-------------------------------10--12--9--7~~~~~~~~7---------|
C#|-------------------------------------------------------------|

Second Riff
c#||------------------------------------------------|
G#||------------------------------------------------|
E ||------------------------------------------------|
B ||-----------------------4----4/5-4--2--5--4------|
F#||-2--------2--4--5-4-2--2----2/3-2--0--------5---|
C#||-0--------0--2--3-2-0---------------------------|
As she fades away!

c#|------------------------------------------------||
G#|------------------------------------------------||
E |--------------------------------------5--4------||
B |-----------------------4----4/5-4--2--------5---||
F#|-2--------2--4--5-4-2--2----2/3-2--0------------||
C#|-0--------0--2--3-2-0---------------------------|| 2x
Like a statue made of clay!

Verse 3
c#|-----------------------------------------|
G#|-----------------------------------------|
E |-----------------------------------------|
B |--------------------9-------7-5----------|
F#|-5-------7-9--------7-------5-3-------7--|
C#|-3-------5-7--------7-----------------5--| 3x
All I wish is to be in grave with her
Slowly transforming back into dirt
Deep under the sacred ground
No one will be able to part us now!

c#|----------------------------------------------| 4th time
G#|----------------------------------------------|
E |----------------------------------------------|
B |--------------------9-------7-5--4-5-7\5-4----|
F#|-5-------7-9--------7-------5-3--2-3-5\3-2-5--|
C#|-3-------5-7--------7----------------------3--|

c#|-------------------|
G#|-------------------|
E |-------------------|
B |-------------------|
F#|-2-----------------|
C#|-0-----------------|


******

"SODOMA SUNRISE"

******

Intro (band enters on 3rd time)
c#|--------------------------------------------------------|
G#|--------------------------------------------------------|
E |--------------------------------------------------------|
B |-7/9-9--9--9--9/10-10\--7--7--7/9-9--9--9--9--9--9--9---|
F#|-5/7-7--7--7--7/8--8\---5--5--5/7-7--7--7--7--7--7--7---|
C#|--------------------------------------------------------| 5x

c#|---------------------------------------------------| 6th time
G#|---------------------------------------------------|
E |---------------------------------------------------|
B |-7/9-9--9--9--9/10-10\--7--7--7/9-9----------------|
F#|-5/7-7--7--7--7/8--8\---5--5--5/7-7--2-------------|
C#|-------------------------------------0-------------|

Verse 1
c#|-----------------------------------------------------| 1st time
G#|-----------------------------------------------------|
E |----------------------------------------9------------|
B |-------------------------------------9-----9-----9---|
F#|-5h7-7--7--7--7h8-8\--5----5h7-7--7-----------7------|
C#|-----------------------------------------------------|
The City of Sin is lying in the evening glow

c#|------------------------------------------------|
G#|------------------------------------------------|
E |------------------------------------------------|
B |------------------------------------------------|
F#|-5h7-7--7--7--7h8-8\--5----5h7-7--7-------------|
C#|------------------------------------------------| 2x
Son of God coming through the gates only one will know
A man named Loot gives him shelter from the crowd outside

c#|---------------------------------------------------| 4th time
G#|---------------------------------------------------|
E |---------------------------------------------------|
B |---------------------------------------------/9\---|
F#|-5h7-7--7--7--7h8-8\--5----5h7-7--2----------------|
C#|----------------------------------0----------------|
They used to rape everyone passing by and do it with pride!

First Riff
c#|--------------------------------------------------------|
G#|--------------------------------------------------------|
E |--------------------------------------------------------|
B |-7/9-9--9--9--9/10-10\--7--7--7/9-9--9--9--9--9--9--9---|
F#|-5/7-7--7--7--7/8--8\---5--5--5/7-7--7--7--7--7--7--7---|
C#|--------------------------------------------------------| 3x

c#|---------------------------------------------------| 4th time
G#|---------------------------------------------------|
E |---------------------------------------------------|
B |-7/9-9--9--9--9/10-10\--7--7--7/9-9----------------|
F#|-5/7-7--7--7--7/8--8\---5--5--5/7-7--2-------------|
C#|-------------------------------------0-------------|

Verse 2
c#|-----------------------------------------------------| 1st time
G#|-----------------------------------------------------|
E |----------------------------------------9------------|
B |-------------------------------------9-----9-----9---|
F#|-5h7-7--7--7--7h8-8\--5----5h7-7--7-----------7------|
C#|-----------------------------------------------------|
Under the Sun this City was ill there was nothing to tell

c#|------------------------------------------------|
G#|------------------------------------------------|
E |------------------------------------------------|
B |------------------------------------------------|
F#|-5h7-7--7--7--7h8-8\--5----5h7-7--7-------------|
C#|------------------------------------------------| 2x
God himself was summoning all the fires of Hell
So Loot and his family left for good to the halls of Zoar

c#|-------------------------------------------------------| 4th time
G#|-------------------------------------------------------|
E |-------------------------------------------------------|
B |-------------------------------------------------/9\---|
F#|-5h7-7--7--7--7h8-8\--5----5h7-7--2---2-2---2-2--------|
C#|----------------------------------0---0-0---0-0--------|
And City of Sin was prepared to meet the fire and roar!

First Riff
c#|--------------------------------------------------------|
G#|--------------------------------------------------------|
E |--------------------------------------------------------|
B |-7/9-9--9--9--9/10-10\--7--7--7/9-9--9--9--9--9--9--9---|
F#|-5/7-7--7--7--7/8--8\---5--5--5/7-7--7--7--7--7--7--7---|
C#|--------------------------------------------------------| 3x

c#|---------------------------------------------------| 4th time
G#|---------------------------------------------------|
E |---------------------------------------------------|
B |-7/9-9--9--9--9/10-10\--7--7--7/9-9----------------|
F#|-5/7-7--7--7--7/8--8\---5--5--5/7-7--2-------------|
C#|-------------------------------------0-------------|

Bridge (band enters on 3rd time)
c#|------------------------------------------|
G#|------------------------------------------|
E |------9--7-----6h7p6----------------------|
B |-------------9-------7--7/10--9---9-9\----|
F#|-7--7-------------------------------------|
C#|------------------------------------------| 6x

Bridge II
c#|-------------------------------------------|
G#|-------------------------------------------|
E |-------------------------------------------|
B |------9--9-10--10-9\---7--7----------------|
F#|-7--7-------------------------10---9-10----|
C#|-------------------------------------------| 4x

Second Riff
c#||-----------------------------------------------|
G#||-----------------------------------------------|
E ||-----------------------------------------------|
B ||-7/--9-9--9-9--9-9--9-12\--9-9--9-9--9-9--9-9--|
F#||-5/--7-7--7-7--7-7--7-10\--7-7--7-7--7-7--7-7--|
C#||-----------------------------------------------|

c#|-------------------------------------------|
G#|-------------------------------------------|
E |--------------------------------7h9p7------|
B |-7/--9-9--9-9--9-9--9-9--9-9--9-------8~~~-|
F#|-5/--7-7--7-7--7-7--7-7--7-7--7------------|
C#|-------------------------------------------|

c#|-----------------------------------------------|
G#|-----------------------------------------------|
E |-----------------------------------------------|
B |-7/--9-9--9-9--9-9--9-12\--9-9--9-9--9-9--9-9--|
F#|-5/--7-7--7-7--7-7--7-10\--7-7--7-7--7-7--7-7--|
C#|-----------------------------------------------|

c#|-------------------------------------------||
G#|-------------------------------------------||
E |-------------------------------------------||
B |-7/--9-9--9-9--9-9--9-9--9-9--9-9--9-9--9--||
F#|-5/--7-7--7-7--7-7--7-7--7-7--7-7--7-7--7--||
C#|-------------------------------------------|| 2x

Verse 3
c#||-----------------------------------------------|
G#||-----------------------------------------------|
E ||-----------------------------------------------|
B ||-7/--9-9--9-9--9-9--9-12\--9-9--9-9--9-9--9-9--|
F#||-5/--7-7--7-7--7-7--7-10\--7-7--7-7--7-7--7-7--|
C#||-----------------------------------------------|

c#|-------------------------------------------||
G#|-------------------------------------------||
E |-------------------------------------------||
B |-7/--9-9--9-9--9-9--9-9--9-9--9-9--9-9--9--||
F#|-5/--7-7--7-7--7-7--7-7--7-7--7-7--7-7--7--||
C#|-------------------------------------------|| 4x
Sunrise in Sodoma, people waking with the fear in their eyes
There's no time to run because the Lord is casting fire in the sky
When you make a sin I hope you realize all the sinners gotta die
Sunrise in Sodoma, all the people see the truth and final light
All right!

Solo: Rhythm
c#||-----------------------------------------------|
G#||-----------------------------------------------|
E ||-----------------------------------------------|
B ||-7/--9-9--9-9--9-9--9-12\--9-9--9-9--9-9--9-9--|
F#||-5/--7-7--7-7--7-7--7-10\--7-7--7-7--7-7--7-7--|
C#||-----------------------------------------------|

c#|-------------------------------------------||
G#|-------------------------------------------||
E |-------------------------------------------||
B |-7/--9-9--9-9--9-9--9-9--9-9--9-9--9-9--9--||
F#|-5/--7-7--7-7--7-7--7-7--7-7--7-7--7-7--7--||
C#|-------------------------------------------|| 4x

Solo: Lead
c#|--------------------------------------------------------|
G#|------------8p7---------8p7-------7---------------------|
E |-7h9-----------9-----7-----9-7-9~~--9-7-----------7-----|
B |----------------------------------------9-7--7h9----9---|
F#|--------------------------------------------------------|
C#|--------------------------------------------------------|

c#|---------------------------------------------------------------|
G#|-8p7------------8--7---7-------------------------7-------------|
E |----9-7-9b--9-7------9----9-7-------7h9~~7h9-9b----9-7b--7-----|
B |------------------------------9-7h9------------------------9---|
F#|---------------------------------------------------------------|
C#|---------------------------------------------------------------|

c#|----------------------------------------------------------------|
G#|-----8-10b-----10br-8---8-10-8-----8--------7-------------------|
E |-7h9------------------9--------9-7---9-7h9~~--9-7---------7-----|
B |--------------------------------------------------7h9--9~~--9~~-|
F#|----------------------------------------------------------------|
C#|----------------------------------------------------------------|

c#|------------------------------------7h8p7----------------------------------|
G#|-----8------7-8-10br-8---10b--8-----------8h10p8------------8-----------8--|
E |-------9~~9------------9--------9-7--------------9-7-9-7~~9---9-------9----|
B |-7h9------------------------------------------------------------7h9p7------|
F#|---------------------------------------------------------------------------|
C#|---------------------------------------------------------------------------|

c#|----------12~~~~~~~~~~~~~~~~~~~~-|
G#|---------------------------------|
E |-9~~~~~~~~-----------------------|
B |---------------------------------|
F#|---------------------------------|
C#|---------------------------------|

Second Riff
c#||-----------------------------------------------|
G#||-----------------------------------------------|
E ||-----------------------------------------------|
B ||-7/--9-9--9-9--9-9--9-12\--9-9--9-9--9-9--9-9--|
F#||-5/--7-7--7-7--7-7--7-10\--7-7--7-7--7-7--7-7--|
C#||-----------------------------------------------|

c#|-------------------------------------------|
G#|-------------------------------------------|
E |--------------------------------7h9p7------|
B |-7/--9-9--9-9--9-9--9-9--9-9--9-------8~~~-|
F#|-5/--7-7--7-7--7-7--7-7--7-7--7------------|
C#|-------------------------------------------|

c#|-----------------------------------------------|
G#|-----------------------------------------------|
E |-----------------------------------------------|
B |-7/--9-9--9-9--9-9--9-12\--9-9--9-9--9-9--9-9--|
F#|-5/--7-7--7-7--7-7--7-10\--7-7--7-7--7-7--7-7--|
C#|-----------------------------------------------|

c#|-------------------------------------------||
G#|-------------------------------------------||
E |-------------------------------------------||
B |-7/--9-9--9-9--9-9--9-9--9-9--9-9--9-9--9--||
F#|-5/--7-7--7-7--7-7--7-7--7-7--7-7--7-7--7--||
C#|-------------------------------------------|| 2x

Vocal Interlude
c#|--------------------------------------|
G#|--------------------------------------|
E |--------------------------------------|
B |------------------------9-------------|
F#|-2----------------2--2--7-------------|
C#|-0----------------0--0--0-------------|

First Riff
c#|---------------------------------------------------|
G#|---------------------------------------------------|
E |---------------------------------------------------|
B |-7/9-9--9--9--9/10-10\--7--7--7/9-9--9-------------|
F#|-5/7-7--7--7--7/8--8\---5--5--5/7-7--7-------------|
C#|---------------------------------------------------|

c#|---------------------------------------------------|
G#|---------------------------------------------------|
E |---------------------------------------------------|
B |-7/9-9--9--9--9/10-10\--7--7--7/9-9----------------|
F#|-5/7-7--7--7--7/8--8\---5--5--5/7-7--2-------------|
C#|-------------------------------------0-------------|

Verse 4
c#|-----------------------------------------------------| 1st time
G#|-----------------------------------------------------|
E |----------------------------------------9------------|
B |-------------------------------------9-----9-----9---|
F#|-5h7-7--7--7--7h8-8\--5----5h7-7--7-----------7------|
C#|-----------------------------------------------------|
Living in a cave won't be so bad if you think about the past

c#|------------------------------------------------|
G#|------------------------------------------------|
E |------------------------------------------------|
B |------------------------------------------------|
F#|-5h7-7--7--7--7h8-8\--5----5h7-7--7-------------|
C#|------------------------------------------------| 2x
Remember the decayed and the burial fires which burned so fast
And if your two daughters wanna fuck their father night and day

c#|---------------------------------------------------| 4th time
G#|---------------------------------------------------|
E |---------------------------------------------------|
B |---------------------------------------------/9\---|
F#|-5h7-7--7--7--7h8-8\--5----5h7-7--2----------------|
C#|----------------------------------0----------------|
It's better to ride than to let your house just fade away!

Outro
c#|--------------------------------------------------------|
G#|--------------------------------------------------------|
E |--------------------------------------------------------|
B |-7/9-9--9--9--9/10-10\--7--7--7/9-9--9--9--9--9--9--9---|
F#|-5/7-7--7--7--7/8--8\---5--5--5/7-7--7--7--7--7--7--7---|
C#|--------------------------------------------------------| 3x

c#|---------------------------------------------------| 4th time
G#|---------------------------------------------------|
E |---------------------------------------------------|
B |-7/9-9--9--9--9/10-10\--7--7--7/9-9----------------|
F#|-5/7-7--7--7--7/8--8\---5--5--5/7-7--2-------------|
C#|-------------------------------------0-------------|


******

"DOOMSOWER"

******

Intro
c#|----------------------------------|
G#|----------------------------------|
E |----------------------------------|
B |-7/9-9-9-9-9-9-9-9-9-9-9-9-9-9-9--|
F#|-5/7-7-7-7-7-7-7-7-7-7-7-7-7-7-7--|
C#|----------------------------------| 2x

Verse 1
c#|----------------------------------|
G#|----------------------------------|
E |----------------------------------|
B |-7/9-9-9-9-9-9-9-9-9-9-9----------|
F#|-5/7-7-7-7-7-7-7-7-7-7-7-10--10---|
C#|-------------------------8---8----| 8x
Walking through this wasteland
Carrying wicked thoughts in my mind
Wondering what will be
Is there any future for mankind?
War is raging somewhere
Every second someone will die
Evil spirits in towers
Magnifying holes in the sky

Second Riff
c#|------------------------------------------------|
G#|------------------------------------------------|
E |------------------------------------------------|
B |-7/9---------7/9---------7/9---------6~~~~5~~~~-|
F#|-5/7---2-----5/7---2-----5/7---2----------------|
C#|-------0-----------0-----------0----------------|

c#|------------------------------------------------|
G#|------------------------------------------------|
E |------------------------------------------------|
B |-7/9---------7/9---------7/9---------8~~~~5~~~~-|
F#|-5/7---2-----5/7---2-----5/7---2----------------|
C#|-------0-----------0-----------0----------------|

First Riff
c#|----------------------------------|
G#|----------------------------------|
E |----------------------------------|
B |-7/9-9-9-9-9-9-9-9-9-9-9----------|
F#|-5/7-7-7-7-7-7-7-7-7-7-7-10--10---|
C#|-------------------------8---8----| 2x

Verse 2
c#|----------------------------------|
G#|----------------------------------|
E |----------------------------------|
B |-7/9-9-9-9-9-9-9-9-9-9-9----------|
F#|-5/7-7-7-7-7-7-7-7-7-7-7-10--10---|
C#|-------------------------8---8----| 4x
I can hear the crying
Starving people who have no face
There's no time to help them
For I'm coming to end of my days

Second Riff again
c#|------------------------------------------------|
G#|------------------------------------------------|
E |------------------------------------------------|
B |-7/9---------7/9---------7/9---------6~~~~5~~~~-|
F#|-5/7---2-----5/7---2-----5/7---2----------------|
C#|-------0-----------0-----------0----------------|
I am falling

c#|------------------------------------------------|
G#|------------------------------------------------|
E |------------------------------------------------|
B |-7/9---------7/9---------7/9---------8~~~~5~~~~-|
F#|-5/7---2-----5/7---2-----5/7---2----------------|
C#|-------0-----------0-----------0----------------|
But it feels good
Yeah!

Pre-Solo                               All right!
c#|----------------------------------|----------------------------------|
G#|----------------------------------|----------------------------------|
E |----------------------------------|----------------------------------|
B |-7/9-9-9-9-9-9-9-9-9-9-9-9-9-9-9--|-9-9-9-9-9-9-9-9-9-9-9-9-9-9-9-9--|
F#|-5/7-7-7-7-7-7-7-7-7-7-7-7-7-7-7--|-7-7-7-7-7-7-7-7-7-7-7-7-7-7-7-7--|
C#|----------------------------------|----------------------------------|

Solo: Rhythm
c#|----------------------------------|
G#|----------------------------------|
E |----------------------------------|
B |-7/9-9-9-9-9-9-9-9-9-9-9----------|
F#|-5/7-7-7-7-7-7-7-7-7-7-7-10--10---|
C#|-------------------------8---8----| 4x

Solo: Lead
c#|---------------------------------------------------------------|
G#|-------------------7h8-8-7h8p7---------------------------------|
E |-----7--9~~~~~~7h9-------------9-7-7h9~~9-9-7-----------7------|
B |-7h9------------------------------------------9-7--7h9~~--9-7--|
F#|---------------------------------------------------------------|
C#|---------------------------------------------------------------|

c#|------------------------8-7h8-7h8-10-8--7h8p7----------------------------|
G#|----------8-7h8-10b---------------------------10-8--7h8--7h8p7-----------|
E |-----7h9-------------------------------------------------------9-7h9~~~~-|
B |-7h9---------------------------------------------------------------------|
F#|-------------------------------------------------------------------------|
C#|-------------------------------------------------------------------------|

Second Riff
c#||---------------------------------------------|
G#||---------------------------------------------|
E ||---------------------------------------------|
B ||-7/9--------7/9--------7/9--------6~~~~5~~~~-|
F#||-5/7---2----5/7---2----5/7---2---------------|
C#||-------0----------0----------0---------------|

c#|---------------------------------------------||
G#|---------------------------------------------||
E |---------------------------------------------||
B |-7/9--------7/9--------7/9--------8~~~~5~~~~-||
F#|-5/7---2----5/7---2----5/7---2---------------||
C#|-------0----------0----------0---------------|| 2x

Lead part (comes in on 2nd time)
c#|---------------------------------------------|
G#|---------------------------------------------|
E |-7h9---9~~~~7h9---9~~~~7h9---9~~~~-----------|
B |----------------------------------6~~~~5~~~~-|
F#|---------------------------------------------|
C#|---------------------------------------------|

c#|---------------------------------------------|
G#|---------------------------------------------|
E |-7h9---9~~~~7h9---9~~~~7h9---9~~~~-----------|
B |----------------------------------8~~~~5~~~~-|
F#|---------------------------------------------|
C#|---------------------------------------------|

Bridge
c#|-------------------------------------------------------|
G#|-------------------------------------------------------|
E |-------------------------------------------------------|
B |-9-----------------------------------------------------|
F#|-7----9----8----11----5/6-6-6-6-6-6-6-5/6-5/6-5/6-5/6--|
C#|------7----6----9-----3/4-4-4-4-4-4-4-3/4-3/4-3/4-3/4--| 4x
There's no time to run
When it's all over
Respect the clear vision
Of mighty Doomsower!

Verse 3
c#|----------------------------------|
G#|----------------------------------|
E |----------------------------------|
B |-7/9-9-9-9-9-9-9-9-9-9-9----------|
F#|-5/7-7-7-7-7-7-7-7-7-7-7-10--10---|
C#|-------------------------8---8----| 8x
People full of hatred
Leading everyone's life to Hell
How long has it been so?
From the dawn of man I can tell
Angels and Demons
Are fighting for our souls, can't you see?
Answer is in your hand
Just choose the way you wanna be

Second Riff
c#|---------------------------------------------|
G#|---------------------------------------------|
E |---------------------------------------------|
B |-7/9--------7/9--------7/9--------6~~~~5~~~~-|
F#|-5/7---2----5/7---2----5/7---2---------------|
C#|-------0----------0----------0---------------|
And live free!

c#|---------------------------------------------|
G#|---------------------------------------------|
E |---------------------------------------------|
B |-7/9--------7/9--------7/9--------8~~~~5~~~~-|
F#|-5/7---2----5/7---2----5/7---2---------------|
C#|-------0----------0----------0---------------|
By the side of your God!

Outro
c#|---------------------------------------------------|
G#|---------------------------------------------------|
E |---------------------------------------------------|
B |-9-------------------------------------------------|
F#|-7----9----8----11----6----5----3----2-------------|
C#|------7----6----9-----4----3----1----0-------------|


******

"CIRITH UNGOL"

******

Intro (drums and storms)

First Riff
c#||---------------------||||----------------------|
G#||---------------------||||----------------------|
E ||---------------------||||----------------------|
B ||---------------------||||-5--------------------|
F#||-7--------7----5-----||||-3------3-5-5---------|
C#||-5--------5----3-----|3x|------------3---------| 2x

Verse 1
c#||---------------------||||----------------------|
G#||---------------------||||----------------------|
E ||---------------------||||----------------------|
B ||---------------------||||-5--------------------|
F#||-7--------7----5-----||||-3------3-5-5---------|
C#||-5--------5----3-----|3x|------------3---------| 3x
A long way from our home
Destined to roam
Where the sun won't shine!
Under the silver moon
Wandering through woods
Where life still exists!
Prisoner of Ring
Evil from within
Guiding our way!

c#||---------------------||||-------------------------| 4th time
G#||---------------------||||-------------------------|
E ||---------------------||||-------------------------|
B ||---------------------||||-5-----------------------|
F#||-7--------7----5-----||||-3------3-5-5----5-4-3---|
C#||-5--------5----3-----|3x|------------3----3-2-1---|
Like a crawling worm
The slave of Evil Supreme
Again he must obey!

Second Riff
c#|--------------------|---------------------|
G#|--------------------|---------------------|
E |--------------------|----------3----------|
B |----------3---------|----------5----7-----|
F#|-2--------1---------|-2-------------5-----|
C#|-0------------------|-0-------------------| 2x

First Riff
c#||---------------------||||----------------------|
G#||---------------------||||----------------------|
E ||---------------------||||----------------------|
B ||---------------------||||-5--------------------|
F#||-7--------7----5-----||||-3------3-5-5---------|
C#||-5--------5----3-----|3x|------------3---------|

Verse 2
c#||---------------------||||----------------------|
G#||---------------------||||----------------------|
E ||---------------------||||----------------------|
B ||---------------------||||-5--------------------|
F#||-7--------7----5-----||||-3------3-5-5---------|
C#||-5--------5----3-----|3x|------------3---------| 3x
Entering a new world
Of the skeletal trees
The valley of the withering flowers!
Once a tower of moon
Now in a darkened room
The one with poison breath!
The King of the City of Death
Carrying his crown of steel
Through a thousand years of war!

c#||---------------------||||-------------------------| 4th time
G#||---------------------||||-------------------------|
E ||---------------------||||-------------------------|
B ||---------------------||||-5-----------------------|
F#||-7--------7----5-----||||-3------3-5-5----5-4-3---|
C#||-5--------5----3-----|3x|------------3----3-2-1---|
Where the shadows lie
All the beauty must die
How long we have to suffer!

Second Riff
c#|--------------------|---------------------|
G#|--------------------|---------------------|
E |--------------------|----------3----------|
B |----------3---------|----------5----7-----|
F#|-2--------1---------|-2-------------5-----|
C#|-0------------------|-0-------------------| 2x

First Riff
c#||---------------------||||----------------------|
G#||---------------------||||----------------------|
E ||---------------------||||----------------------|
B ||---------------------||||-5--------------------|
F#||-7--------7----5-----||||-3------3-5-5---------|
C#||-5--------5----3-----|3x|------------3---------|

Verse 3
c#||---------------------||||----------------------|
G#||---------------------||||----------------------|
E ||---------------------||||----------------------|
B ||---------------------||||-5--------------------|
F#||-7--------7----5-----||||-3------3-5-5---------|
C#||-5--------5----3-----|3x|------------3---------|
The army under the Ring
They rise their banners for him
A fiery God in sorrow!

c#||---------------------||||-------------------------|
G#||---------------------||||-------------------------|
E ||---------------------||||-------------------------|
B ||---------------------||||-5-----------------------|
F#||-7--------7----5-----||||-3------3-5-5----5-4-3---|
C#||-5--------5----3-----|3x|------------3----3-2-1---|
Haunting blood red eye
Ruling the distant sky
The symbol of our DOOOM!

Second Riff
c#|--------------------|---------------------|
G#|--------------------|---------------------|
E |--------------------|----------3----------|
B |----------3---------|----------5----7-----|
F#|-2--------1---------|-2-------------5-----|
C#|-0------------------|-0-------------------| 2x

Verse 4
c#|--------------------|---------------------|
G#|--------------------|---------------------|
E |--------------------|----------3----------|
B |----------3---------|----------5----7-----|
F#|-2--------1---------|-2-------------5-----|
C#|-0------------------|-0-------------------| 4x
At the end of the stairs
The wicked mother is waiting
There's no way to turn back
We must face what we fear
Stare into the eyes of Terror!

Break (sustain then fade out while bass plays 3rd riff 2x)
c#|-------------------|
G#|-------------------|
E |-------------------|
B |-------------------|
F#|-2-----------------|
C#|-0-----------------|

Third Riff
c#|------------|-------------|-------------|--------------|
G#|------------|-------------|-------------|--------------|
E |------------|-------------|-------------|--------------|
B |------------|-------------|-------------|--------------|
F#|------------|-------------|-------------|--------------|
C#|-0----2-----|-3----2--3---|-5----3--5---|-7--8--5--2---|

c#|------------|-------------|-------------|---------------|
G#|------------|-------------|-------------|---------------|
E |------------|-------------|-------------|---------------|
B |------------|-------------|-------------|---------------|
F#|------------|-------------|-------------|-9--10--7--4---|
C#|-0----2-----|-3----2--3---|-5----3--5---|-7--8---5--2---|

Verse 5
c#|-------------|----------------|----------------|------------------|
G#|-------------|----------------|----------------|------------------|
E |-------------|----------------|----------------|------------------|
B |-9----11-----|-12----11--12---|-14----12--14---|-16--17--14--11---|
F#|-7----9------|-10----9---10---|-12----10--12---|-14--15--12--9----|
C#|-------------|----------------|----------------|------------------| 4x
Into the sunrise it will end
Under the starlight we will sleep eternally
Hearing the whispers from the sea
And now when the new day takes the pain
We are free, there is no more to tell

Outro
c#|------------|---------------|---------------|-------------|
G#|------------|---------------|---------------|-------------|
E |------------|---------------|---------------|-------------|
B |-9----7-----|-9----12--11---|-5----12--11---|-4----5--7---|
F#|-7----5-----|-7----10--9----|-3----10--9----|-2----3--5---|
C#|------------|---------------|---------------|-------------| 8x

"Ash nazg durbatuluk, ash nazg gimbatul
Ash nazg thrakatuluk, agh burzum-ishi krimpatul"
c#|-------------------|
G#|-------------------|
E |-------------------|
B |-------------------|
F#|-2-----------------|
C#|-0-----------------|


Tabbed by Golgathor
Tap to rate this tab
# A B C D E F G H I J K L M N O P Q R S T U V W X Y Z