Song name
# A B C D E F G H I J K L M N O P Q R S T U V W X Y Z

Reverend Horton Heat - The Devils Chasing Me tab

The song is on Em
Play this fast
e|---6--5-6--5-6----------------|
B|---5--5-5--5-5--5-----5-------|
G|------------------7-----------| x3
D|--------------------8---7-5---|
A|----------------------------7-|
E|-0(let ring)------------------|

e|------------------------------------------------------------|
B|-5------3---------------------------------------------------|Continues
G|----3-4---4-3-4-5-4---4-3-4-----0---0---0---0---0---0---0---|with
D|--------------------4---------2---0-------------------------|verse
A|--------------------------------------3---2---0-------------|
E|--------------------------------------------------3---2---1-|

Verse (play very fast, it is recommended to use fingers)
e|----------------------------------|
B|-------------------------------0(let ring)
G|----------------------------------|
D|---2-------2-------2-------2------|and so
A|-------2-------2-------2-------2--|
E|-0---0---0---0---0---0---0---0----|<- this string muted
Tap to rate this tab
# A B C D E F G H I J K L M N O P Q R S T U V W X Y Z