Song name
# A B C D E F G H I J K L M N O P Q R S T U V W X Y Z

Reverend Horton Heat - Marijuana tab

Band: Reverend Horton Heat
Album: Smoke em if you Got em
Tuning: Standard

Back with another tab kids. This time, its the Rev. 
 this is a somewhat
instrumental song off of their debut album. It's the 8th track
and my favorite one off of the album. I tried to break up the 
solo section in between where Jim pauses. Mr. Heath made 
my job a little easier this time. Alright guys, strums 
are not exact, listen for the changes.
Let's go!!

(little drum intro)

at about 13 seconds:     20 seconds:
e|--------------------|-------------------------------------|
B|--------------------|-------------------------------------|
G|--------------------|-----0(ring)-------------------------|
D|--------------------|-------------------------------------|
A|--------------------|-------------------------------------|
E|-----0~-------------|--------------<<<----<<<--<<<--------|
                                     little pick scrapes.

31 seconds....alright let's go!!
e|------------------------0~----|
B|------------------------0~----|
G|------------------------0~----|
D|------------------------2~----|
A|------------------------2~----|
E|->>>>>>>pickscrape------------|

MAIN RIFF: (about 39 seconds in)
e|-------|-----------------0~-|---------------------------0~-|
B|-------|-----------------0~-|---------------------------0~-|
G|-------|-----------------0~-|---------------------------0~-|
D|----2~-|---2--0----------2~-|-----------7--5------0-2~--2~-|
A|--2----|-2-------2-0-2~--2~-|--0-0~---7-------7\--------2~-|
E|-------|--------------------|------------------------------|

e|-------------------------------------------0----|
B|-----------------------------------------0---0--|
G|---------------------------------------0--------|
D|-----------7--5-------0-2-----2------2----------|
A|-0-0~----7-------7\-----------------------------|
E|--------------------------0-0----0-0------------|

CHORUS RIFF:
                                                   (11th fret to 15th)
e|-3---666-969----9-12-9-12-9-12---10-13-10-13-10-13----11-15-11-15-11-15--12-16-12-14-|--10-10-10-|
B|-3---666-666----9-9--9-9--9-9----10-10-10-10-10-10----11-11-11-11-11-11--12-12-12-12-|---9--9--9-|
G|-------------------------------------------------------------------------------------|--10-10-10-|
D|-------------------------------------------------------------------------------------|-----------|
A|-------------------------------------------------------------------------------------|-----------|
E|-------------------------------------------------------------------------------------|-----------|
                                                        "MARIJUANA!!"
e|-7-8-10-7-8-10---------------------------------------------|
B|-7-8-10-7-8-10---7-8--10--7-8--10--------------------------|
G|-----------------8-9--11--8-9--11--------------------------|
D|-----------------9-10-12--9-10-12---9--10-12--9--10-12--9--|
A|------------------------------------9--10-12--9--10-12--9--|
E|------------------------------------7--8--10--7--8--10--7--|

MAIN RIFF: (In the 4th measure, he adds a little chord..)
e|-------|-----------------0~-|---------------------------0~-|
B|-------|-----------------0~-|---------------------------0~-|
G|-------|-----------------0~-|---------------------------0~-|
D|----2~-|---2--0----------2~-|-----------7--5------0-2~--2~-|
A|--2----|-2-------2-0-2~--2~-|--0-0~---7-------7\--------2~-|
E|-------|--------------------|------------------------------|

e|------------------------------------------------0----|
B|--------7~------------------------------------0---0--|
G|--------5~----------------------------------0--------|
D|--------7~------7--5-------0-2-----2------2----------|
A|-0-0~-------7-------7\-------------------------------|
E|-------------------------------0-0----0-0------------|

Repeat CHORUS RIFF:

SOLO 1:

e|-----12--------12-|---12-----------12---------------|
B|---x-----15^------|--x---12--15^-------15-----------|
G|-x----------------|-x----------------------15p14p12-|
D|------------------|---------------------------------|
A|------------------|---------------------------------|
E|------------------|---------------------------------|

e|-15^15^15^15^15^12-15^15p12-|-15^15^15^15^-12-15-12h15p12-----12---15p12-|
B|----------------------------|-----------------------------15^------------|
G|----------------------------|--------------------------------------------|
D|----------------------------|--------------------------------------------|
A|----------------------------|--------------------------------------------|
E|----------------------------|--------------------------------------------|

e|-----12--15p12-----12--15p12-|----12--14-14-12------------12-14-12-----------------|
B|-15------------15^-----------|-15---------------13-12-13------------13-12-12h13p12-|
G|-----------------------------|-----------------------------------------------------|
D|-----------------------------|-----------------------------------------------------|
A|-----------------------------|-----------------------------------------------------|
E|-----------------------------|-----------------------------------------------------|

e|---------12--------------12---------|-14--12h13p12----------------|
B|------12----15p12-----12-----15-12--|--------------15-12----12-15-|
G|-14^--------------14^---------------|--------------------14-------|
D|------------------------------------|-----------------------------|
A|------------------------------------|-----------------------------|
E|------------------------------------|-----------------------------|

e|-14--12h13p12---------------------------------------------------------|
B|---------------15-12----12-15---15^15^15^15^15^15^15^15^15^15^15^-----|
G|---------------------14-----------------------------------------------|
D|----------------------------------------------------------------------|
A|----------------------------------------------------------------------|
E|----------------------------------------------------------------------|

e|17-17^17^17^17^17^17^17^-|-15-17-15-17-15-14-15-17^17^17^17^17rb-17-12-12-|
B|-------------------------|------------------------------------------------|
G|-------------------------|------------------------------------------------|
D|-------------------------|------------------------------------------------|
A|-------------------------|------------------------------------------------|
E|-------------------------|------------------------------------------------|

e|---------12---------------15-15-12-15-15-12-15-15-12-15/17-----------------|
B|-12-15(b)-----15-12-15----15-15-12-15-15-12-15-15-12-15/17-----------------|
G|---------------------------------------------------------------------------|
D|---------------------------------------------------------------------------|
A|---------------------------------------------------------------------------|
E|---------------------------------------------------------------------------|

e|----------12----------------12-----------|12-15-14-12-|
B|-12--15^------15-12------15-----15-12----|12-15-14-12-|
G|--------------------14----------------14-|------------|
D|-----------------------------------------|------------|
A|-----------------------------------------|------------|
E|-----------------------------------------|------------|

e|--------------------------------|-------------------------|
B|--------------------------------|-------------------------|
G|--------------------------------|-------------------------|
D|-14--12-------------------------|5-7-8-7-5----------------|
A|--------14--12\-0-0-12\-0-0-12\-|----------7---5h77--5h77-| 
E|--------------------------------|-------------------------|

e|--------------------|
B|--------------------|
G|--------------------|
D|-5-7-8-7-5---5-7----|
A|-----------7--------|  
E|--------------------|
                                                
(listen carefully during this part. Had to split it up so it might be
a little tricky to follow)
e|-----------------------12------12-----12------12--------12-----------12--|
B|-------------------12--12--15--12-----12--15--12-----12----15p12-----12--|
G|-----------12--14------------------14-------------14--------------14-----|
D|----12-14----------------------------------------------------------------|
A|/14----------------------------------------------------------------------|
E|-------------------------------------------------------------------------|


e|----------------------------------|
B|----------------------------------|
G|-15-14-12-------------------------|
D|-----------14--12-----------------|
A|-------------------14-12-10-------|
E|----------------------------12-12\|

e|-0~~~---|
B|-0~~~---|
G|-0~~~---|
D|-2~~~---|
A|-2~~~---|
E|--------|

Drum solo. Then, he plays around with the pick scraping.
Repeat MAIN RIFF
Repeat CHORUS RIFF

"Marijuana!!"

2ND SOLO:
e|-12-----------------------|12-------------12-----------------------|
B|----15^15^15^15^15^15^15^-|----15-----12--------15^15^15^15^15^15--|
G|--------------------------|-------14^------------------------------|
D|--------------------------|----------------------------------------|
A|--------------------------|----------------------------------------|
E|--------------------------|----------------------------------------|

e|-15^--15--12--------------12---------------12--------------|
B|-------------15-------12-----15p12------12-----15p12-------|
G|-----------------14^----------------14^---------------14^--|
D|-----------------------------------------------------------|
A|-----------------------------------------------------------|
E|-----------------------------------------------------------|

e|----12-------------12-------------|------------------------------------|
B|12------15^15^15^-----15----------|------------------------12----------|
G|--------------------------14^--12-|-14--14^-12----12--14^------12------|
D|----------------------------------|------------14-----------------14---|
A|----------------------------------|------------------------------------|
E|----------------------------------|------------------------------------|

e|---------------------------------------------------------------|
B|---------------------------------------------------------------|
G|---------------------------------------------------------------|
D|----12--14--12------12-----------------------------------------|
A|-14-------------14------14--12--10--12-13-12-10----------------|
E|-------------------------------------------------10-12-10------|
                                  *************************
e|------------------------------------------------------------|
B|------------------------------------------------------------|
G|------------------------------------------------------------|
D|-14-12------------------------------------------------------|
A|--------14--13--12---10--12--13--12--10---------------------|
E|-----------------------------------------12--10--12-12------|
                                           *****************
e|-----------------------------------------------------------------------|
B|-----------------------------------------------------------------------|
G|-----------------------------------------------------------------------|
D|-----------------------------------------------------------------------|
A|---6-------------------------------------------5-----------------------|
E|-7---7-6-5---3-5-6-5---3-5-6-5--3-5-6-5--3-5-6----6-5-3--0000000000----|
*******************************************************************

(rounding home plate guys!)

e|--------------------------------|
B|---------------------------0~---|
G|--------------------------------| repeat until the end.
D|-2----0-2---0-2---0-2---0--2----|
A|---2------2-----2-----2---------|
E|--------------------------------|

"MARI--JUA-NA!!!"
e|-------------------0~---|
B|-------------------0~---|
G|-------------------0~---| END
D|-------------------2~---|
A|-------------------2~---|
E|------------------------|

That's it guys! Very fun one to learn and play. Next, I'll be tabbing
Nine Lives by The Stray Cats. Let me know if there are any corrections
that need to be made and/or tabs you want to request. Have fun!!

************************************

| /   slide up
| \   slide down
| h   hammer-on
| p   pull-off
| ~   vibrato
| +   harmonic
| x   Mute note
| ^   Bend
| *   palm mute
************************************


Tap to rate this tab
# A B C D E F G H I J K L M N O P Q R S T U V W X Y Z