Song name
# A B C D E F G H I J K L M N O P Q R S T U V W X Y Z

Reverend Horton Heat - Five O Ford tab

Band: Reverend Horton Heat
Album: Liquor in the Front
Tuning: Standard

Alright kids. Back with another tab from the Reverend. 
Very simple, very straight forward song that does not have
a lot of parts. The intro/chorus has a very good picking 
exercise that will improve your speed and dexterity. This
is the 4th track off of their 3rd album. Strums not exact,
LISTEN for the changes. Lets go!!

INTRO:
e|--------------------------------------------------------------------|
B|--------------------------------------------------------------------|
G|--------------------------------------------------------------------|
D|---------------------------------2--------------1-4-1----------000--|
A|----------------2--------0-2-3-4---4-3-2--2-4-5-------4-2---2-45454-|
E|-12/----0-2-3-4---4-3-2---------------------------------------------|

e|--------------|
B|--------------|
G|--------------|
D|-----000000---| X2
A|-2-4-545454---|
E|--------------|

VERSE: (easy as hell to figure this out)
e|-------------|
B|-------------|
G|----2--4-----|
D|-2--2--4--2--|X4
A|-2--2--2--2--|
E|-0--------0--|
   pm*****


Repeat INTRO
Repeat VERSE
Repeat INTRO


SOLO:
e|-000000--555555---777777777----------|
B|-000000--555555---777777777----------|
G|-------------------------------------|
D|-------------------------------------|
A|-------------------------------------|
E|------------------------------00000--|

e|-12-12~----12-12----14---14--12------------------|
B|-12-12~----12-12----14---14--12------------------|
G|-12-12~-12-13-13--14---14--------12^-12^p10------|
D|--------------------------------------------12---|
A|-------------------------------------------------|
E|-------------------------------------------------|

e|----12---------------------------12-------15~-----------|
B|----12---------------------------12-------14~-----------|
G|-14----14p12---14p12---12-14-14^----14-12---------------|
D|------------14------14----------------------------------|
A|--------------------------------------------------------|
E|--------------------------------------------------------|
                                   (--rapid picking)
e|--------------------0------------0000--0000--0---0---|
B|-/8--8---8----------0------------5555--8888--10--12--|
G|---9---9---9--7---7---7---7--------------------------|
D|----------------9-------9---9-7----------------------|
A|-----------------------------------------------------|
E|-----------------------------------------------------|

e|---------------------------------------------|
B|-15---12-------------------------------------|
G|----------14--12--14-12----------------------|
D|-------------------------14--12-14--12-------|
A|----------------------------------------14---|
E|---------------------------------------------|

Repeat VERSE
Repeat CHORUS

END ON: 
e|------|
B|------|
G|------|
D|-2~---|
A|-2~---|
E|-0~---|

Yup. That's it for another one. Very hard for me to decide
what to tab next since there are so many that I plan on tabbing.
So, I decided to tackle another Stray Cats song. Up next is 
Race With the Devil by the Stray Cats. Have fun!

************************************

| /   slide up
| \   slide down
| h   hammer-on
| p   pull-off
| ~   vibrato
| +   harmonic
| x   Mute note
| b   Bend
| pb  Pre-bend
| br  Bend release
| pbr Pre-bend release
| brb Bend release bend

************************************
Tap to rate this tab
# A B C D E F G H I J K L M N O P Q R S T U V W X Y Z