Song name
# A B C D E F G H I J K L M N O P Q R S T U V W X Y Z

Reverend Horton Heat - Folsom Prison Blues tab

 Gtr I
  E E E Q  Q  Q  Q    E     S S S S E   E  3x
|-----------------------||-----------------||
|-----------------------||o---------------o||
|-----------------------||-----------------||
|-------1--1------------||--2-2------------||
|-2-2-2-------2---------||o-----2-0-------o||
|----------------2b3--0-||----------2b3-0--||


  E E E     E E E E  7x E E E E     E E E E  4x
|-------||-----------||---------||-----------||--|
|-------||o---------o||---------||o---2---2-o||--|
|-------||----1---1--||---------||----2---2--||--|
|-----1-||----2---2--||---------||----2---2--||--|
|-2-4---||o---2-2-2-o||---------||o-0-------o||--|
|-------||--0--------||-0-0-2-4-||------0----||--|


    S S S S E   E  3x E E E     E E E E  3x E E   E     E E S S S   S  3x
||-----------------||-------||-----------||---------||-----------------||-|
||o---------------o||-------||o---2---2-o||---------||o---------------o||-|
||-----------------||-------||----4---4--||---------||-----------------||-|
||--2-2------------||-------||----4---4--||---------||--2-2------------||-|
||o-----2-0-------o||-------||o-2-------o||-2-------||o-----2-0-------o||-|
||----------2b3-0--||-4-5-6-||------2----||---2b3-0-||----------2b3-0--||-|


    E E E E S S E E E   E E E E S S E E E
||--------------------|-----------------0--||-|
||o-------------2---3-|---2-0-------2-----o||-|
||----------0h1-------|---------0h1--------||-|
||------1---2---2-----|-2---2---2---2------||-|
||o-2-4---------------|-------------------o||-|
||--------0-------0---|-------0-------0----||-|
|
|       Gtr I
||--------------------|--------------------||-|
||o-------------------|-------------------o||-|
||--------------------|--------------------||-|
||--------------------|--------------------||-|
||o-------------------|-------------------o||-|
||--------------------|--------------------||-|


  E E E E E E E E  E E  E  E E  E  E   S S E E E   E E E E S S E E E
|---------5-----9------12------15----|-----------|-----------------0--|
|-----------7-----10------14------17-|-----2---3-|---2-0-------2------|
|------------------------------------|-0h1-------|---------0h1--------|
|------------------------------------|-2---2-----|-2---2---2---2------|
|-------0-----0------0-------0-------|-----------|--------------------|
|-0-2-4-----0------0-------0-------0-|-------0---|-------0-------0----|


  E E E E E E E E E E E E E E E   S S E E E E E E   E S S E E E
|---------------------------2-3-|-----------------|-----------0--|
|---------0-----0-----0---------|-----2---3---2-0-|-------2------|
|-----------2-----2-----2-------|-0h1-------------|---0h1--------|
|-------------------------------|-2---2-----2---2-|---2---2------|
|---0-1-2-----2-----2-----2-----|-----------------|--------------|
|-4---------2-----2-----2-----2-|-------0---------|-0-------0----|


  E E E E E E E E E E E E E E E E E E E E E E E E
|---------0-----0---------0-----0---------0-----0-|
|-----------0---------------0---------------0-----|
|-------------1---------------1---------------1---|
|---0-1-2-------2---0-1-2-------2---0-1-2-------2-|
|-2---------2-----2---------2-----2---------2-----|
|-------------------------------------------------|


   E  E E E E E E E E     E E E E E E E E E E E E  E E  E E  E E
|-----------------3-------0-----------5-----5---------------------|
|-------------2-----2b2.5---------7-------5------------12---------|
|---------0h1-----------------5h6---------------9-12--------12-9--|
|---------2---2-----2---------7---7-----7---7---9--9------9----9--|
|-----------------------------------------------------------------|
|-12-/0-0-------0-----------5-------5---------9------9------------|


  S S E E E E E E E
|-------------------|
|-----2---3---2-0---|
|-0h1---------------|
|-2---2-----2---2---|
|-------------------|
|-------0---------0-|


  S S E E E S S S S S S S S S S S S S S S S S S S S E E E     E
|---------0-----------------------------------------------------|
|-----2---------------------------------------------------------|
|-0h1-----------------------------------------------------------|
|-2---2-------------1-1---1-1---1-1---1-1---1-1---1-1-----------|
|-------------0-1-2-----------2-----------2-----2-----1---------|
|-------0---4-----------2-----------2-------------------2b2.5-0-|


    S S S S E   E  3x        S S S S S S S     S S S S S S S S S S
||-----------------||-------------------------------------------------|
||o---------------o||-------------------------------------------------|
||-----------------||----------------------------1-1-1-1-1-1-1-0-1----|
||--2-2------------||--------------1-1-----------2-2-2-2-2-2-2-0-2----|
||o-----2-0-------o||--------2-2-2-----2---------2-2-2-2-2-2-2-0-2----|
||----------2b3-0--||--------------------2b2.5-0-0-0-0-0-0-0-0-0-0----|
Tap to rate this tab
 
# A B C D E F G H I J K L M N O P Q R S T U V W X Y Z