Song name
# A B C D E F G H I J K L M N O P Q R S T U V W X Y Z

Reverend Horton Heat - Bullet tab

  Gtr I
|-----------------|--------------------------------------------------------|
|-----------------|-------------------------------------------------(0)----|
|-----------------|--------------------------------------------------0-----|
|-------------2-2-|-----------------------------2-2------------------------|
|---------2-2-----|-----2-2-----1-0---------2-2---------2-2-----1-0--------|
|-0-0-3-3---------|-0-0-----0-0-----0-0-3-3---------0-0-----0-0------------|


                                     4x
||-----------------------------------||-|
||o---------------------------------o||-|
||-----------------------------------||-|
||--------------2-2------------------||-|
||o---------2-2---------2-2-----1-0-o||-|
||--0-0-3-3---------0-0-----0-0------||-|


||-----------------------------------||--|
||o---------------------------------o||--|
||--------------2-2------------------||--|
||----------2-2---------2-2-----1-0--||--|
||o-0-0-3-3---------0-0-----0-0-----o||--|
||-----------------------------------||--|


|------------------------------------------------------------------|
|------------------------------------------------------------------|
|-------------------------------------------------/4-4-4-4-4-4-2-0-|
|-------------2-2-----------------------------2-2------------------|
|---------2-2---------2-2-----1-0---------2-2----------------------|
|-0-0-3-3---------0-0-----0-0-----0-0-3-3--------------------------|


    PM------------|                                                     ~
                     3x
||-------------------||-----------------------------------------------------|
||o-----------------o||-----------------------------------------------------|
||-------------------||-------------2S4-------------------------------------|
||--2-2-----1-1------||-2-2-----1-1-----------------2-2---------------------|
||o-----2-2-----1-0-o||-----2-2-----------------2-2---------2-2-----1-0-----|
||-------------------||-----------------0-0-3-3---------0-0-----0-0-----0---|


|-5-6-7--10--9--12-13-14--15--14--5-6-7--10--9-----------------------------------|
|-5-6-7--10--9--12-13-14--15--14--5-6-7--10--9-----------------------------------|
|--------------------------------------------------------------------------------|
|--------------------------------------------------------------------------------|
|-----------------------------------------------1-1-2-2-1-1-2-2-1-1-2-2-1-1-2-2--|
|--------------------------------------------------------------------------------|


|---------------------------------------------------------|
|---------------------------------------------------------|
|-----------------------------2S4-----------------2/--14--|
|-------------2-2-----------------------------2-2---------|
|---------2-2---------2-2-----------------2-2-------------|
|-0-0-3-3---------0-0-----0-0-----0-0-3-3-----------------|


|-----------------------------------------------0-2-0-3-0-4-0-5-0-|
|-----------------------------------------------0-2-0-3-0-4-0-5-0-|
|-----------------------------2S4---------------------------------|
|-------------2-2-----------------------------2-------------------|
|---------2-2---------2-2-----------------2-2---------------------|
|-0-0-3-3---------0-0-----0-0-----0-0-3-3-------------------------|


|---------------\12-14-12-14-12-14-12-14-12-|
|---------------\12-14-12-14-12-14-12-14-12-|
|-------------2-----------------------------|
|---------2-2-------------------------------|
|-0-0-3-3-----------------------------------|
|-------------------------------------------|


|---------------\12-14-12-14-12-14-12-14S17-|
|---------------\12-14-12-14-12-14-12-14S17-|
|-------------2-----------------------------|
|---------2-2-----------------------------4-|
|-0-0-3-3-----------------------------------|
|-------------------------------------------|


                                               TP  TP    PM------------|
                                                                          3x
|----------------------------------------------------||-------------------||-|
|----------------------------------------------------||o-----------------o||-|
|----------------------------------------------------||-------------------||-|
|-------------2-2------------------------------------||--2-2-----1-1------||-|
|---------2-2---------2-2-----1-0---------2-2--------||o-----2-2-----1-0-o||-|
|-0-0-3-3---------0-0-----0-0-----0-0-3-3-----12--\0-||-------------------||-|


|----------------------------------------------------|
|----------------------------------------------------|
|-------------2S4------------------------------------|
|-----2-2---------------------2-2--------------------|
|-2-2-----1-1-------------2-2---------2-2-----1-0----|
|-----------------0-0-3-3---------0-0-----0-0-----0--|


|-5-6-7--10--9--12-13-14--15--14--5-6-7--10--9-----------------------------------|
|-5-6-7--10--9--12-13-14--15--14--5-6-7--10--9-----------------------------------|
|--------------------------------------------------------------------------------|
|--------------------------------------------------------------------------------|
|-----------------------------------------------1-1-2-2-1-1-2-2-1-1-2-2-1-1-2-2--|
|--------------------------------------------------------------------------------|


                      3x
||----0---------------||---0-------------------|
||o---0--------------o||---0-------------------|
||----0---------------||---0-4S2-0-------------|
||----2---------------||---2-------2-0---------|
||o---2--------1-0---o||---2-----------2-0-----|
||--0----3-3-3-----3--||-0-----------------3-0-|


                              3x
||----------------------------||--|
||o--------------------------o||--|
||--/9-9-9-9-9-9-9-9-9-7------||--|
||-----------------------9-9--||--|
||o--------------------------o||--|
||----------------------------||--|


                                                                             3x
|-----------------------7-7-8-8-7-7-||--12-12-12-12-12-12-12-12-12-12-12-11--||
|-----7-7-8-8-7-7-10-10-------------||o-12-12-12-12-12-12-12-12-12-12-12-11-o||
|-9-9-------------------------------||---------------------------------------||
|-----------------------------------||---------------------------------------||
|-----------------------------------||o-------------------------------------o||
|-----------------------------------||---------------------------------------||


|-12-12-7S12-12-12-7S12-12-12-7S12---|
|-12-12-7-12-12-12-7-12-12-12-7-12---|
|------------------------------------|
|------------------------------------|
|------------------------------------|
|------------------------------------|


                                   3x
||--12-12-12-12-12-12-12-12-18-17--||-15-15-15-15-15-0-9-0-7-0-5/---0----|
||o-12-12-12-12-12-12-12-12-------o||-15-15-15-15-15-0-9-0-7-0-5/---0----|
||---------------------------------||-------------------------------0----|
||---------------------------------||-------------------------------2----|
||o-------------------------------o||-------------------------------2----|
||---------------------------------||-----------------------------0------|


|-5-6-7--10--9--12-13-14--15--14--5-6-7--10--9-----------------------------------|
|-5-6-7--10--9--12-13-14--15--14--5-6-7--10--9-----------------------------------|
|--------------------------------------------------------------------------------|
|--------------------------------------------------------------------------------|
|-----------------------------------------------1-1-2-2-1-1-2-2-1-1-2-2-1-1-2-2--|
|--------------------------------------------------------------------------------|


|------------------------------------------------------------------|
|------------------------------------------------------------------|
|----------------------------------------------------------2/--14--|
|-------------2-2-------------2-/4-------------2-2-----------------|
|---------2-2---------2-2------------------2-2---------2-2---------|
|-0-0-3-3---------0-0-----0-0------0-0-3-3---------0-0-------------|


|-----------------------------------------------0-2-0-3-0-4-0-5-0-|
|-----------------------------------------------0-2-0-3-0-4-0-5-0-|
|-----------------------------------------------------------------|
|-------------2-2-------------2S4-------------2-------------------|
|---------2-2---------2-2-----------------2-2---------------------|
|-0-0-3-3---------0-0-----0-0-----0-0-3-3-------------------------|


|---------------\12-14-12-14-12-14-12-14-12---------------\12-14-12-14-12-14-12-14-17-|
|---------------\12-14-12-14-12-14-12-14-12---------------\12-14-12-14-12-14-12-14S17-|
|-------------2-----------------------------------------2-----------------------------|
|---------2-2---------------------------------------2-2-------------------------------|
|-0-0-3-3-----------------------------------0-0-3-3-----------------------------------|
|-------------------------------------------------------------------------------------|


                                   TP  TP
|-----------------------------------------3S10-10S7-7S5S7--|
|-----------------------------------------3S10-10S7-7S5S7--|
|----------------------------------------------------------|
|-------------2-2------------------------------------------|
|---------2-2---------2-2-----1-0--------------------------|
|-0-0-3-3---------0-0-----0-0-----15/--0-------------------|


    PM------------|
                     3x
||-------------------||--------------------------------------|
||o-----------------o||--------------------------------------|
||-------------------||-------------4S2----------------------|
||--2-2-----1-1------||-2-2-----1-1-----------2--------------|
||o-----2-2-----1-0-o||-----2-2-------------2-----2---0------|
||-------------------||-----------------0-3-----0---0---0----|


|-5-6-7--10--9--|-12-13-14--15--14--|-5-6-7--10--9--|
|-5-6-7--10--9--|-12-13-14--15--14--|-5-6-7--10--9--|
|---------------|-------------------|---------------|
|---------------|-------------------|---------------|
|---------------|-------------------|---------------|
|---------------|-------------------|---------------|


|---------------------------------0----|
|---------------------------------0----|
|---------------------------------0----|
|---------------------------------2----|
|-1-1-2-2-1-1-2-2-1-1-2-2-1-1-2-2-2----|
|---------------------------------0----|


  TP   TPTPTPTPTPTPTPTPTPTPTPTPTP
|----------------------------------------------------------|
|----------------------------------------------------------|
|-0----2-3-2-0-0-2-3-2-0-2-3-2-0---------------------------|
|--------------------------------0-2-0---0-2-0-------------|
|--------------------------------------2-------2-0-2-0-----|
|------------------------------------------------------3-0-|



** Generated using Power Tab Editor by Brad Larsen: The Official Power Tab Web Site
Tap to rate this tab
 
# A B C D E F G H I J K L M N O P Q R S T U V W X Y Z