Song name
# A B C D E F G H I J K L M N O P Q R S T U V W X Y Z

Reverend Horton Heat - Bad Reputation tab

Intro and Verse

|------------------22\--0-||------------------||-------------|
|-------------------------||o----------------o||-------------|
|-7-7-4-------------------||------------------||-------------|
|-------7-4---------------||------0-4-4-6\7---||---\7-7-4----|
|-----------5-5-5---------||o---5------------o||----------5--|
|-------------------------||--5---------------||-5-----------|

Chorus

|-3-3-3-3-3-3-3-3-1-1-1-1-1-1-1-1----------------------|
|-5-5-5-5-5-5-5-5-3-3-3-3-3-3-3-3---------2-2-2-2-3----|
|-4-4-4-4-4-4-4-4-2-2-2-2-2-2-2-2-1-1-1-1-2-2-2-2-4----|
|-5-5-5-5-5-5-5-5-3-3-3-3-3-3-3-3-2-2-2-2-2-2-2-2-5----|
|---------------------------------2-2-2-2-0-0-0-0------|
|------------------------------------------------------|


First Solo:


|-10-13-13-12-10-13-13-13-12-10-13-12-10-13-12-10-13-12-10-------10-13-12-10-------10-9S10-|
|----------------------------------------------------------13b14-------------13b14-10-9S10-|
|----------------------------------------------------------------------------------10-9S10-|
|------------------------------------------------------------------------------------------|
|------------------------------------------------------------------------------------------|
|------------------------------------------------------------------------------------------|


|-10-13-13-12-10-13-13-13-12-10-13-13-13b14-10---------------------------|
|----------------------------------------------13-10----------10-9S10----|
|----------------------------------------------------12-10----10-9S10----|
|----------------------------------------------------------12-10-9S10----|
|------------------------------------------------------------------------|
|------------------------------------------------------------------------|


|-10-10----10-10-------------10-13-10-------------------------------10-12-13-12-10---------------|
|-------12-------12----12-------------13-10----------------10-12-13----------------13-12-10------|
|-------------------10----10----------------12-10----10-12----------------------------------12-10|
|-------------------------------------------------12---------------------------------------------|
|------------------------------------------------------------------------------------------------|
|------------------------------------------------------------------------------------------------|


|-------------------10-------10----10-10-----------------------------|
|----------10-13b15----13b15----10-------12-10-----------------------|
|----10-12-------------------------------------11-11-----------------|
|-12-------------------------------------------------12-12-----------|
|----------------------------------------------------------12\--5----|
|--------------------------------------------------------------------|

Second Solo:

|-10-13-13-13-13-12-10-13-13-13-13-12-10-13-12-10-13-12-10-13-12--10-------10-10-------10---------|
|-----------------------------------------------------------------10-------10-10-------10-12-10-12|
|--------------------------------------------------------------------12b14-------12b14----12-10-12|
|-------------------------------------------------------------------------------------------------|
|-------------------------------------------------------------------------------------------------|
|-------------------------------------------------------------------------------------------------|


|-10-13-13-12-10-13-13-12-10-------------/13-10-/13-10-/13-12-11-10-10-10-9-10-9-10-8-8-8-7-8-7-8-|
|----------------------------12b13-10-12-/13-10-/13-10-/13-12-11-10-10-10-9-10-9-10-8-8-8-7-8-7-8-|
|----------------------------12b13-10-12----------------------------------------------------------|
|-------------------------------------------------------------------------------------------------|
|-------------------------------------------------------------------------------------------------|
|-------------------------------------------------------------------------------------------------|


|-10-------10--------10-13-10-13-10-13-12-10----10-------------9--9--9--9--9--9----|
|----13b15----13b15--10-13-10-13-10-13-12-10-12----12-9h12----10-10-10-10-10-10----|
|--------------------------------------------12------------11-11-11-11-11-11-11----|
|----------------------------------------------------------------------------------|
|----------------------------------------------------------------------------------|
|----------------------------------------------------------------------------------|

Play the Chorus one more time and then play the outro:

|-/10-10-10-7----7------------------------------------------------------------|
|-------------10---10-------------------------------------------------------5-|
|---------------------4-4---4---7-7-4---------------------------------------6-|
|-------------------------7---7-------7-4-----------------------------------7-|
|-----------------------------------------5-5-2-----------------------2-4-5-7-|
|-----------------------------------------------5-2-5-5-2-0-5-5-2-0-5---------|
Tap to rate this tab
 
# A B C D E F G H I J K L M N O P Q R S T U V W X Y Z