Song name
# A B C D E F G H I J K L M N O P Q R S T U V W X Y Z

Reverend Horton Heat - The Happy Camper tab

                                        The Happy Camper
                                      The Reverend Horton Heat



      Q    Q    Q    Q        H        H           Q    Q    Q    Q       H        H
E||-----------------------|---------------------|----------------------|--------------------|
B||--10----7--------------|--10-----------------|----------------------|--------------------|
G||-------------7---------|---8-----------------|----------------------|--2-----------------|
D||------------------9----|--10-----------------|--7----4--------------|--4-----------------|
A||-----------------------|---------------------|------------6----3----|--3-----------------|
E||-----------------------|---------------------|----------------------|--------------------|


  Q    Q    H           Q    Q    H            Q     Q     Q     Q        Q     Q    Q   
 Q
--5----2----5--------|--5----2----5--------|--17----14----------------|------------------------|
--4----1----4--------|--4----1----4--------|--------------15----------|------------------------|
--5----2----5--------|--5----2----5--------|--------------------16----|--13-----L--------------|
--4----1----4--------|--4----1----4--------|--------------------------|------------------------|
---------------------|---------------------|--------------------------|------------------------|
---------------------|---------------------|--------------------------|---------0----2----4----|


  Q    E  E  Q    Q       H        Q    Q       Q    H.              W
-----------------------|---------------------|--------------------|-------------------|
-----------------------|---------------------|--------------------|-------------------|
-----------------------|-----------2---------|--------------------|-------------------|
------------------2----|--4-------------4----|--0-----------------|-------------------|
--0----0--0--4---------|---------------------|-------2------------|--L----------------|
-----------------------|---------------------|--------------------|-------------------|


  Q    E  E  Q    Q       Q    Q    H           Q    E  E  E  E  E  E     Q    Q    Q    Q
-----------------------|---------------------|-------------------------|----------------------|
-----------------------|---------------------|-------------------------|----------------------|
--4----4--2--1---------|---------------------|-------------------------|----------------------|
------------------4----|-------4----L--------|--2----2--------2--4--2--|----------------------|
-----------------------|--3------------------|----------2--4-----------|----------------------|
-----------------------|---------------------|-------------------------|--0----0----2----4----|


  Q    E  E  Q    Q       H        Q    Q       Q    Q    H           W
-----------------------|---------------------|---------------------|-------------------|
-----------------------|---------------------|---------------------|-------------------|
-----------------------|-----------2---------|---------------------|-------------------|
------------------2----|--4-------------4----|--0------------------|-------------------|
--0----0--0--4---------|---------------------|-------2----L--------|--L----------------|
-----------------------|---------------------|---------------------|-------------------|


  H        Q    Q       H        Q     Q        Q    E  E  E  E  E  E     Q    Q    Q    Q
---------------------|-----------------------|-------------------------|----------------------|
--0--------2----3----|--2--------------------|-------------------------|----------------------|
--1------------------|-----------------------|-------------------------|--2-------------------|
--0------------------|-----------------------|----------------2--4--2--|----------------------|
--2------------------|-----------2b----2b----|--0----0--2--4-----------|----------------------|
--0------------------|-----------------------|-------------------------|-------0----2----4----|


  Q    E  E  Q    Q       H        Q    Q       Q    H.              W
-----------------------|---------------------|--------------------|-------------------|
-----------------------|---------------------|--------------------|-------------------|
-----------------------|-----------2---------|--------------------|-------------------|
------------------2----|--4-------------4----|--0-----------------|-------------------|
--0----0--0--4---------|---------------------|-------2------------|--L----------------|
-----------------------|---------------------|--------------------|-------------------|


  Q    E  E  Q    Q       Q    Q    H           Q    E  E  E  E  E  E     Q    Q    Q    Q
-----------------------|---------------------|-------------------------|----------------------|
-----------------------|---------------------|-------------------------|----------------------|
--4----4--2--1---------|---------------------|-------------------------|----------------------|
------------------4----|-------4----L--------|--2----2--------2--4--2--|----------------------|
-----------------------|--3------------------|----------2--4-----------|----------------------|
-----------------------|---------------------|-------------------------|--0----0----2----4----|


  Q    E  E  Q    Q       H        Q    Q       Q    Q    H           W
-----------------------|---------------------|---------------------|-------------------|
-----------------------|---------------------|---------------------|-------------------|
-----------------------|-----------2---------|---------------------|-------------------|
------------------2----|--4-------------4----|--0------------------|-------------------|
--0----0--0--4---------|---------------------|-------2----L--------|--L----------------|
-----------------------|---------------------|---------------------|-------------------|


  H        Q    Q       Q    Q    Q    Q       Q.     E   E  E  E  E     Q    Q    Q    Q
---------------------|----------------------|-------------------------|--5-------------------|
--0--------2----3----|--2----0---------0----|----------------5--7--5--|----------------------|
--1------------------|------------1---------|--2------4s--6-----------|----------------------|
--0------------------|----------------------|-------------------------|----------------------|
--2------------------|----------------------|-------------------------|-------0----2----4----|
--0------------------|----------------------|-------------------------|----------------------|


  Q    E  E  Q    Q       H.            Q       H          H           H        H
-----------------------|---------------------|----------------------|----------------------|
-----------------------|---------------------|----------------------|----------------------|
------------------2----|--4b------------2----|--4br--------2--------|----------------------|
--0----0--0--4---------|---------------------|----------------------|--2--------2br--------|
-----------------------|---------------------|----------------------|----------------------|
-----------------------|---------------------|----------------------|----------------------|


  Q    E  E  Q    Q       H.            Q       E  E  E  E  E  E  E  E     Q    Q    Q   
 Q
-----------------------|---------------------|--------------------------|----------------------|
-----------------------|---------------------|--------------------------|----------------------|
------------------2----|--4b------------2----|--------0--------0--------|--0-------------------|
--0----0--0--4---------|---------------------|-----0--------0--------0--|----------------------|
-----------------------|---------------------|--4--------4--------4-----|-------0----2----4----|
-----------------------|---------------------|--------------------------|----------------------|


  Q    E  E  Q    Q       H.            Q       H          H           Q    E  E  Q    Q
-----------------------|---------------------|----------------------|-----------------------|
-----------------------|---------------------|----------------------|-----------------------|
------------------2----|--4b------------2----|--4br--------2--------|-----------------------|
--0----0--0--4---------|---------------------|----------------------|--2----2--2--2----3----|
-----------------------|---------------------|----------------------|-----------------------|
-----------------------|---------------------|----------------------|-----------------------|


  Q    E  E  Q    Q       Q    Q    Q    Q       Q    Q    Q    Q       H        H
-----------------------|----------------------|--5----2--------------|--5-----------------|
------------------0----|--2----0---------0----|------------3---------|--4-----------------|
-------------2---------|------------3---------|-----------------4----|--5-----------------|
--4----4--4------------|----------------------|----------------------|--------------------|
-----------------------|----------------------|----------------------|--------------------|
-----------------------|----------------------|----------------------|--------------------|


  Q    Q    Q    Q       H        H           Q    Q    H           Q    Q    H
----------------------|--------------------|--5----2----5--------|--5----2----5--------|
----------------------|--------------------|--4----1----4--------|--4----1----4--------|
----------------------|--2-----------------|--5----2----5--------|--5----2----5--------|
--7----4--------------|--4-----------------|--4----1----4--------|--4----1----4--------|
------------6----3----|--3-----------------|---------------------|---------------------|
----------------------|--------------------|---------------------|---------------------|


   Q     Q     Q     Q        Q     Q    Q    Q       Q    E  E  Q    Q       H        Q 
   Q
--17----14----------------|------------------------|-----------------------|---------------------|
--------------15----------|------------------------|-----------------------|---------------------|
--------------------16----|--13-----L--------------|-----------------------|-----------2---------|
--------------------------|------------------------|------------------2----|--4-------------4----|
--------------------------|------------------------|--0----0--0--4---------|---------------------|
--------------------------|---------0----2----4----|-----------------------|---------------------|


  Q    H.              W                   Q     E  E  Q    Q       Q    H.
--------------------|-------------------|------------------------|----------------------|
--------------------|-------------------|------------------------|----------------------|
--------------------|-------------------|--3b----3--2--1---------|----------------------|
--0-----------------|-------------------|-------------------4----|-------4br------------|
-------2------------|--L----------------|------------------------|--3-------------------|
--------------------|-------------------|------------------------|----------------------|


  E  E  E  E  E  E  Q       Q    Q    Q    Q       Q    E  E  Q    Q       H        Q    Q
-------------------------|----------------------|-----------------------|---------------------|
-------------------------|----------------------|-----------------------|---------------------|
-------------------------|----------------------|-----------------------|-----------2---------|
--2--2--------2--4--2----|----------------------|------------------2----|--4-------------4----|
--------2--4-------------|----------------------|--0----0--0--4---------|---------------------|
-------------------------|--0----0----2----4----|-----------------------|---------------------|


  Q    Q    H           W                   H        Q    Q       Q    Q    Q    Q
---------------------|-------------------|---------------------|----------------------|
---------------------|-------------------|--0--------2----3----|--2----0---------0----|
---------------------|-------------------|--1------------------|------------1---------|
--0------------------|-------------------|--0------------------|----------------------|
-------2----L--------|--L----------------|--2------------------|----------------------|
---------------------|-------------------|--0------------------|----------------------|


  Q.     E   E  E  E  E     Q    Q    Q    Q       Q    Q    Q    Q       Q    H.
-------------------------|--5--------------4----|--5----4--------------|----------------------|
----------------5--7--5--|-------5----7---------|------------7----5----|----------------------|
--2------4s--6-----------|----------------------|----------------------|--7----6br------------|
-------------------------|----------------------|----------------------|----------------------|
-------------------------|----------------------|----------------------|----------------------|
-------------------------|----------------------|----------------------|----------------------|


  E  E  Q.     Q.        E   E  E  E   E  E  E  E     E  E  E   E  E  E   E  E
--------0------7------|--4---------4---------0-----|--------4p--0-----5p--0-----|
--------0------9------|--3p--0-----3p--0--------0--|-----3---------3---------3--|
--9------------9------|--4------4--4------4--------|--4------------4---------4--|
-----9----------------|----------------------------|----------------------------|
----------------------|----------------------------|----------------------------|
----------------------|----------------------------|----------------------------|


  E   E  E  E   E  E  E   E     Q    H        Q       H        H           Q    H        Q
--4p--0-----5p--0-----4p--0--|-------5--------5----|--5--------5--------|--8----8--------5----|
---------3---------3---------|--5----5--------5----|--7--------5--------|--7----7--------5----|
---------4---------4---------|--6-------------6----|--6-----------------|---------------------|
-----------------------------|---------------------|--------------------|---------------------|
-----------------------------|---------------------|--------------------|---------------------|
-----------------------------|---------------------|--------------------|---------------------|


  H        Q    Q       E  E  Q    Q    E   E     E  E  E  E  E  E  Q
--8--------8----5----|--------0---------7p--0--|--0--0--0--0--0--0--0----|
--7--------7----5----|--9-----0----9--------9--|--5--5--5--7--7--7--5----|
---------------------|-----9-------9--------9--|-------------------------|
---------------------|-------------------------|-------------------------|
---------------------|-------------------------|-------------------------|
---------------------|-------------------------|-------------------------|


  E  E  E  E  E   E  E  E      E  E  E   E  E  E  E  E      H         Q     Q
--------9--------12--------|--11--------10--------9-----|---9--------12-----9----|
-----9--------9---------9--|---------9---------9--------|--10--------10----10----|
--9--------9---------9-----|------9---------9--------9--|---9---------9-----9----|
---------------------------|----------------------------|------------------------|
---------------------------|----------------------------|------------------------|
---------------------------|----------------------------|------------------------|


   Q     Q     Q    Q        Q     Q     Q     Q        Q     Q     Q     Q
---9----------------9----|--10----------10----------|--10----------10----------|
--10----10----12---------|--10----10----10----10----|--10----10----10----10----|
---9-----9---------------|---9-----------9----------|---9-----------9----------|
-------------------------|--10----------10----------|--10----------10----------|
-------------------------|--------------------------|--------------------------|
-------------------------|--------------------------|--------------------------|


  E  E  E  E  E  E  E  E     E  E  E  E  E  E  Q        Q     H         Q
--------5--------5--------|--5--------5--------5----|--------10---------L----|
-----5--------5--------5--|--------5--------5-------|--------12--------10----|
--8--------8--------8-----|-----8--------8----------|--------11---------L----|
--------------------------|-------------------------|--12----12---------L----|
--------------------------|-------------------------|------------------------|
--------------------------|-------------------------|------------------------|


   Q     Q     H           E  E  E  E  E  E  E  E     E  E  E  E  E  E  E  E
---L-----L-----L--------|--------------------------|---------------------------|
--12----10----12--------|--------5--------7--------|--5--------7--------5------|
---L-----L-----L--------|-----5--------7--------5--|--------7--------5-----5s--|
---L-----L-----L--------|--5--------7--------5-----|-----7--------5------------|
------------------------|--------------------------|---------------------------|
------------------------|--------------------------|---------------------------|


   Q     Q     Q     Q        Q      Q     Q     Q        Q      Q     Q     Q
--------------10----------|---------10----------------|---------12----------------|
--------10----------10----|--13b----------12----10----|--15b----------15----12----|
--11----------------------|---------------------------|---------------------------|
--------------------------|---------------------------|---------------------------|
--------------------------|---------------------------|---------------------------|
--------------------------|---------------------------|---------------------------|


   Q     Q     Q     Q        E   E   E   E   E   E   E   E      E   E   E   E   E   E   Q
--------12----------13----|----------14----------16----------|--17----------16----------14----|
--------------------------|------14----------14----------14--|----------14----------14--------|
--14----------14----------|--15----------15----------15------|------15----------15------------|
--------------------------|----------------------------------|--------------------------------|
--------------------------|----------------------------------|--------------------------------|
--------------------------|----------------------------------|--------------------------------|


   Q     Q     Q     Q        Q     Q     Q     Q        Q     Q     Q     Q
--17----14----------------|--12----12----14----16----|--17\---------17\---------|
--------------15----------|--14----------------------|--------------------------|
--------------------16----|--13----------------------|--------------------------|
--------------------------|--14----------------------|--------------------------|
--------------------------|--------------------------|--------------------------|
--------------------------|--------------------------|--------------------------|


   Q     Q      H           Q     E   E   E  E   E  E     E  E  H.
--17\---------/17--------|--0----12--12--12--0--10--0--|--9--0--3b------------|
-------------------------|-----------------------------|----------------------|
-------------------------|-----------------------------|----------------------|
-------------------------|-----------------------------|----------------------|
-------------------------|-----------------------------|----------------------|
-------------------------|-----------------------------|----------------------|


  Q    E  E  E  E  E  E     E  E  E  E  E  Q.        Q    H        Q       H         H
-------------4-----------|--3-----------2--0------|---------------------|----------------------|
----------0-----------0--|-----------0-----0------|---------------------|----------------------|
--4----4--------4--3-----|-----3--2--------1------|-------2--------2----|----------------------|
-------------------------|------------------------|-------2--------2----|----------------------|
-------------------------|------------------------|--0------------------|--2b--------2b--------|
-------------------------|------------------------|---------------------|----------------------|


  E   E  Q    E   Q.        E   E  Q    E   E  Q       E  E  Q    Q    Q       Q    Q    Q
   Q
-------------------------|--------------------------|-----------------------|--------------------|
-------------------------|--------------------------|-----------------------|--------------------|
---------2----0h--2------|---------2----2p--0-------|-----------------------|--------------------|
--2h--4------------------|--2h--4--------------2----|--2--------------------|--------------------|
-------------------------|--------------------------|--2--------------------|--------------------|
-------------------------|--------------------------|--0--3--0----5----7----|--0----5----0----7--|


  Q    Q    Q    Q       Q    Q    Q    Q       Q    E   E  E  E  E  E      Q    Q    Q  
  Q
----------------------|----------------------|---------------------------|----------------------|
----------------------|----------------------|---------------------------|----------------------|
----------------------|----------------------|---------------------------|----------------------|
----------------------|----------------------|--------------2--4--2--4s--|--7-------------------|
----------------------|----------------------|--0----2s--4---------------|-------0----2----4----|
--0----9----0----7----|--0----9----0----7----|---------------------------|----------------------|


  Q    E  E  Q    Q       H.            Q       H         H           H        H
-----------------------|---------------------|---------------------|----------------------|
-----------------------|---------------------|---------------------|----------------------|
------------------2----|--4b------------2----|--4b--------2--------|----------------------|
--0----0--0--4---------|---------------------|---------------------|--2--------2br--------|
-----------------------|---------------------|---------------------|----------------------|
-----------------------|---------------------|---------------------|----------------------|


  Q    E  E  Q    Q       H.            Q       E  E  E  E  E  E  E  E     Q    Q    Q   
 Q
-----------------------|---------------------|--------------------------|----------------------|
-----------------------|---------------------|--------------------------|----------------------|
------------------2----|--4b------------2----|--------0--------0--------|--0-------------------|
--0----0--0--4---------|---------------------|-----0--------0--------0--|----------------------|
-----------------------|---------------------|--4--------4--------4-----|-------0----2----4----|
-----------------------|---------------------|--------------------------|----------------------|


  Q    E  E  Q    Q       H.            Q       H          H           Q    E  E  Q    Q
-----------------------|---------------------|----------------------|-----------------------|
-----------------------|---------------------|----------------------|-----------------------|
------------------2----|--4b------------2----|--4br--------2--------|-----------------------|
--0----0--0--4---------|---------------------|----------------------|--2----2--2--2----3----|
-----------------------|---------------------|----------------------|-----------------------|
-----------------------|---------------------|----------------------|-----------------------|


  Q    E  E  Q    Q       Q    Q    Q    Q       Q    Q    Q    Q       H        H
-----------------------|----------------------|--5----2--------------|--5-----------------|
------------------0----|--2----0---------0----|------------3---------|--4-----------------|
-------------2---------|------------3---------|-----------------4----|--5-----------------|
--4----4--4------------|----------------------|----------------------|--------------------|
-----------------------|----------------------|----------------------|--------------------|
-----------------------|----------------------|----------------------|--------------------|


   Q     Q     Q     Q        H        H           Q    Q    H           Q    Q    H
--17----14----------------|--17-----------------|--5----2----5--------|--5----2----5--------|
--------------15----------|---------------------|--4----1----4--------|--4----1----4--------|
--------------------16----|---------------------|--5----2----5--------|--5----2----5--------|
--------------------------|---------------------|--4----1----4--------|--4----1----4--------|
--------------------------|---------------------|---------------------|---------------------|
--------------------------|---------------------|---------------------|---------------------|


   Q     Q     Q     Q        Q     Q    Q    Q       Q    E  E  Q    Q       H        Q 
   Q
--17----14----------------|------------------------|-----------------------|---------------------|
--------------15----------|------------------------|-----------------------|---------------------|
--------------------16----|--13-----L--------------|-----------------------|-----------2---------|
--------------------------|------------------------|------------------2----|--4-------------4----|
--------------------------|------------------------|--0----0--0--4---------|---------------------|
--------------------------|---------0----2----4----|-----------------------|---------------------|


  Q    H.              W                   Q     E  E  Q    Q       Q    H.
--------------------|-------------------|------------------------|----------------------|
--------------------|-------------------|------------------------|----------------------|
--------------------|-------------------|--3b----3--2--1---------|----------------------|
--0-----------------|-------------------|-------------------4----|-------4br------------|
-------2------------|--L----------------|------------------------|--3-------------------|
--------------------|-------------------|------------------------|----------------------|


  E  E  Q    E  E  Q       Q    Q    Q    Q       Q    E  E  Q    Q       H        Q    Q
------------------------|----------------------|-----------------------|---------------------|
------------------------|----------------------|-----------------------|---------------------|
------------------------|----------------------|-----------------------|-----------2---------|
--2--2-------2--4--2----|----------------------|------------------2----|--4-------------4----|
--------4---------------|----------------------|--0----0--0--4---------|---------------------|
------------------------|--0----0----2----4----|-----------------------|---------------------|


  Q    H.              W                   H        Q    Q       H        Q    Q
--------------------|-------------------|---------------------|---------------------|
--------------------|-------------------|--0--------2----3----|--2-------------0----|
--------------------|-------------------|--1------------------|-----------1---------|
--0-----------------|-------------------|--0------------------|---------------------|
-------2------------|--L----------------|--2------------------|---------------------|
--------------------|-------------------|--0------------------|---------------------|


  W                   W                   H        Q     Q       H        Q    Q
-------------------|-------------------|--7--------9----10----|--9--------7---------|
-------------------|-------------------|--9-------------------|----------------9----|
--2----------------|--L----------------|----------------------|---------------------|
--2----------------|--L----------------|----------------------|---------------------|
-------------------|-------------------|----------------------|---------------------|
-------------------|-------------------|----------------------|---------------------|


   W                    W                   H        Q     Q       H        Q    Q
--------------------|--------------------|--7--------9----10----|--9--------7---------|
--10----------------|---L----------------|----------------------|----------------9----|
---9----------------|---L----------------|----------------------|---------------------|
---0----------------|---L----------------|----------------------|---------------------|
--------------------|--------------------|----------------------|---------------------|
--------------------|--------------------|----------------------|---------------------|


   Q     E   Q     Q     E      E    Q.     Q    Q       W                   W
------------------12----14--|--12--/17----------------|-------------------|-------------------||
--10----12--14--------------|-------------------------|-------------------|-------------------||
----------------------------|--------------------2----|--L----------------|--L----------------||
----------------------------|--------------------2----|--L----------------|--L----------------||
----------------------------|--------------------0----|--L----------------|--L----------------||
----------------------------|---------------0---------|-------------------|-------------------||
Tap to rate this tab
# A B C D E F G H I J K L M N O P Q R S T U V W X Y Z