Song name
# A B C D E F G H I J K L M N O P Q R S T U V W X Y Z

Reverend Horton Heat - Like A Rocket tab

alright this one comes off album number seven
its called
Like A Rocket
again guys you figure out the strum patterns another reverend song in that basic chuck
berry boogie woogie sryle riff
ALSO I HAVE NO PROBLEM WITH ANYONE SHARING MY TABS BUT PLEASE GIVE DUE CREDIT TO ME DEE
ROCKER FOR THE HARD WORK I HAVE PUT INTO THESE
INTRO
E--------------------------------------------------|
A--------------------------------------------------|
D--------------------------------------------------|
G--------------------------------------------------|
B--------------------------------------------------|
e-333333-66666666-99999999-1212121212-151515151515-|
  8   7  6   5     4    3  2    1     YEAHHHHHHHHHH
Chorus
E-3-3-X-X-X-X-|
A-5-5-3-3-5-5-|
D-5-7-5-5-7-7-|
G-----5-7-7-9-|
B-------------|
e-------------|
Verse
E-3^^^^x----x-----|
A-5^^^^3^^^^5^^^^-|
D-5^^^^5^^^^7^^^^-|
G------5^^^^7^^---|
B-----------------|
e-----------------|
Solo
E-------------------------|
A-------------------------|
D-------------------------|
G--333/666-3/6-6/8-8/10---|
B--333/666-3/6-6/8-8/10---|
e--333/666-3/6-6/8-8/10---|

Lyrics
8...7...6...5...4...3...2...Yeah!

Like A Rocket
 Like A Rocket
 Like A Rocket
 Mmm mmm Number one certifiable rocket-Yeah.

Like A Rocket- Mmm mmm
 Like A Rocket- B-B-B-B-B-B-B-B-B
 Like A Rocket- Mmm mmm
 I got the whole universe in the palm of my hand.

Punch the transmission
 Four on the floor
 It's an awful lotta mill for a thirty two Ford
 (If) it's got no fenders or running boards
 To the finish line [I'll blow them/their doors???]

Like A Rocket- Mmm mmm
 Like A Rocket- B-B-B-B-B-B-B-B-B
 Like A Rocket-Mmm mmm
 Number one certifiable rocket-Yeah

 Like A Rocket- Mmm mmm
 Like A Rocket- B-B-B-B-B-B-B-B-B
 Like A Rocket- Mmm mmm
 If you drive a car then you understand...GO!

-guitar solo-------------(SCREAM)

Cruisin' down town
 Everyone sees
 Everyone's gotta car- wants a piece of me
 Radio stays on hillbilly bop
 Stickshift pokin' through the old rag top

Like A Rocket- Mmm mmm
 Like A Rocket- B-B-B-B-B-B-B-B-B
 Like A Rocket-Mmm mmm
 Number one certifiable rocket-Yeah

Like A Rocket- Mmm mmm
 Like A Rocket- B-B-B-B-B-B-B-B-B
 Like A Rocket- Mmm mmm
 I got the whole universe in the palm of my hand.

8...7...6...5...4...3...2...YEAH!

Yeah kids, that's "Like A Rocket".
 That's Rock and roll!
Tap to rate this tab
# A B C D E F G H I J K L M N O P Q R S T U V W X Y Z