Song name
# A B C D E F G H I J K L M N O P Q R S T U V W X Y Z

Reverend Horton Heat - Death Metal Guys tab

hey cats dee rocker here with another reverend tab this one is death metal guys off of 
the album laughing and crying with the reverend horton heat
this song is in basic A D E like rockabilly should be but of course as is usual of the 
rev its been fancied up a little bit

please if you feel that you want to share this tab just give me credit for the hard work 
i did learning this and tabing it

Intro

E--------------3---|b
A-0h3-0h3-0h3-0----|
D-2---2---2---2----| X2
G-2---2---2---2----|
B-2---2---2---2----|
e------------------|

Verse

E-5--------5-------------------5--------5------------------|
A-7--------7---------5---------7--------7--------7---------|
D-7--------7---------4---------7--------7--------6---------|
G-6--------6---------5p0h5p0h5-6--------6--------7p0h7p0h7-|
B-5-6/5----5-6-------3---------5-6/5----5-6------5---------|
e-5----6/5-5---6-6/5-----------5----6/5-5--6-6/5-----------|

Chorus

E-5-6-7-8----|
A-7-8-9-10---|
D-7-8-9-10---|
G------------|
B------------|
e------------|

Bridge
E---5--------5--------|
A-5-7--------7------7-|
D-4-7--------7------6-|
G-5-6--------6------7-|
B-3-5-6/5----5-6----5-|
e---5----6/5-5--6/5---|

Solo
Sorry not gonna try and tab the revs genuis here but it is in an A and its pretty simple


Tab by Dee Rocker of Johnny Rocker and the 6ixty 9ines
Tap to rate this tab
# A B C D E F G H I J K L M N O P Q R S T U V W X Y Z