Song name
# A B C D E F G H I J K L M N O P Q R S T U V W X Y Z

Reverend Horton Heat - Baddest Of The Bad tab

Baddest of the Bad - Reverend Horton Heat
Tabbed by: Johannes Romp Email: Johannes.Romp@gmail.com Tuning: standard E

I tried to leave out recurring parts as much as possible. When playing the notes I'm 
sure you'll recognize it. There's the last part of the solo I'm not quite sure what he 
plays. It sound like a regular pentatonic scale in E from D to D

Verse:

E - E - E - C7 - E - B - E F E

e|---------------------------------------------------------------|
B|---------(0)---------------------------------------------------|
G|----------3-------4--------------------------------------------|
D|2---------2-------4-----3--------------------------------------|
A|2---------3-------2-----3--------------------------------------|
E|0-----------------------1--------------------------------------|

e|---------------------------------------------------------------|
B|----0----------------------------------------------------------|
G|/3---p0--------------------------------------------------------|
D|--------2p0--2p02p0---2p0--2-p0--------------------------------|
A|---------------------------------------------------------------|
E|-----------0-------0-----0------0------------------------------|

e|---------------------------------------------------------------|
B|----0--------0---0---------------------------------------------|
G|/3---p0-------3---3/4------------------------------------------|
D|--------2p0----2-----------------------------------------------|
A|------------3--------------------------------------------------|
E|---------------------------------------------------------------|

e|---------------------------------------------------------------|
B|----0--------0---0---0-----------------------------------------|
G|/3---p0-------3---3----3---------------------------------------|
D|--------2p0----2---2----2--------------------------------------|
A|------------3--------------------------------------------------|
E|0--------------------------------------------------------------|



e|-----------------------------------0---------------------------|
B|-0-------0------0-----0------0---------------------------------|
G|---3p0-----3-------3------3----3-------------------------------|
D|---------------------------------2-----------------------------|
A|------------3-------2---2--------------------------------------|
E|0------1------0-------------0----------------------------------|
Solo
e|-12----13---12-------------------------------------------------|
B|-12----12-15---15-12-------------------------------------------|
G|-15p12-14-------------15-14-12---------------------12-13-15----|
D|------------------------------14----------12-13-14-------------|
A|---------------------------------12-13-14----------------------|
E|---------------------------------------------------------------|

e|-------------12-13-12----12------------------------------------|
B|------12-13~-12-12---15/---15/-15-12---------------------------|
G|12-15--------15-14-------------------14-12---------------------|
D|-------------------------------------------14-12---------------|
A|---------------------------------------------------------------|
E|---------------------------------------------------------------|

e|---------------------------------------------------------------|
B|-----------0---------------------------------------------------|
G|----4------------0-----0---------------------------------------|
D|2---5----2-----2-----2-----------------------------------------|
A|2---5--3------2----3-------------------------------------------|
E|0---3--------0-------------------------------------------------|

e|---------------------------------------------------------------|
B|12--13--12-8---------------------------------------------------|
G|14/-15/-14-10/-------------------------------------------------|
D|-----------5---4-5-4-------------------------------------------|
A|2---3---2--3---2-3-2-5-----------------------------------------|
E|0---1---0------------3-----------------------------------------|

| /  slide up
| \  slide down
| h  hammer-on
| p  pull-off
| ~  vibrato
| +  harmonic
| x  Mute note
Tap to rate this tab
 
# A B C D E F G H I J K L M N O P Q R S T U V W X Y Z