Song name
# A B C D E F G H I J K L M N O P Q R S T U V W X Y Z

Reverend Horton Heat - Let Me Teach You How To Eat tab

Alright kiddies it's time for another reverend Horton heat tab this is off the new album 
REV I saw the rev do this one live in Houston before the album came out

and as always I have no problem with you sharing this tab but please make sure to give 
me credit for the work I have done

-INTRO-

E-00-0123-00-0123-00-0123-00-0123-|
A-22------22------22------22------|
D-22------22------22------22------|
G-00------00------00------00------|
B-00------00------00------00------|
e-00------00------00------00------|

-Verse-
Let Me Teach You How To Eat..
E-00-11--00--00-11-00------------00-11-00-----------|
A-22-33--22--22-33-22--00-11-00--22-33-22--22-33-22-|
D-22-33--22--22-33-22--22-33-22--22-33-22--44-55-44-|
G----------------------22-33-22------------44-55-44-|
B---------------------------------------------------|
e---------------------------------------------------|

-Chorus-
I'll teach you things that you never knew...
E-xxxx-0000|---------|
A-0000-2222|----2222-|
D-2222-2222|X4--4444-|
G-2222-xxxx|----4444-|
B-xxxx-xxxx|---------|
e-xxxx-xxxx|---------|

-Solo-
E-----------------------------3p0------------3p0------------------------------|
A--------------------------2p0---1h2----2p1p0---------------------------------|
D-----------------------1p0---------h2p0--------------------------------------|
G--------------------2p0------------------------------------------------------|
B-3/5-3/5-3/5-3/5-3p0----------------------------3/5-3/5-3/5/6/7/8/9/10/11/12-|
e-0/0-0/0-0/0-0/0--------------------------------0/0-0/0/-0/0-----------------|

E-----------------------------------------------------------15p12-|
A---------------------------------------------------14p13p12------|
D------------------------------------------14--14p12--------------|
G-------------------------------------14p12--12-------------------|
B---15b--15b--15b--15b------15--15p12-----------------------------|
e-12---12---12---12----15p12--12----------------------------------|

-Verse-
-Chorus-

-Solo 2-
E-0000001230000000333000000353535353000000131313100033--|
A-------------------------------------------------------|Open E string Noise
D-------------------------------------------------------|
G-------------------------------------------------------|
B-------------------------------------------------------|
e-------------------------------------------------------|

-End-

nothing to complicated just god ol' Reverend Horton heat psychobilly
Tap to rate this tab
# A B C D E F G H I J K L M N O P Q R S T U V W X Y Z