Song name
# A B C D E F G H I J K L M N O P Q R S T U V W X Y Z

Reverend Horton Heat - Girl In Blue tab

The Reverend Horton Heat

----------------
The Girl in Blue
----------------

all I have for now is the main riff:

|----------------------------------------------|
|----------------------------------------------|
|-----------------------------2----------------|
|---2-1-2---2-2-1-1-2---2-1-2---2-2-1-1-2------|
|-0-------0-----------0------------------------|
|----------------------------------------------|

|----------------------------------------------|
|----------------------------------------------|
|------------------------------2---------------|
|------------------------2-1-2---2-2-1-1-2-----|
|---2-1-2---2-2-1-1-2--0-----------------------|
|-0-------0------------------------------------|
Tap to rate this tab
# A B C D E F G H I J K L M N O P Q R S T U V W X Y Z