Song name
# A B C D E F G H I J K L M N O P Q R S T U V W X Y Z

Reverend Horton Heat - Spend A Night In The Box tab

-THE REVEREND HORTON HEAT-
Spend A Night In A Box

Transcribed by manumick20@yahoo.com


Intro:

e-8--8---8--8--8--8--11--8--10--8--------8----|
b-8--8---8--8--8-------------------11--8---10-|
g-9--9---9--9--9------------------------------|
d---------------------------------------------|(x2)
a---------------------------------------------|
e---------------------------------------------|

e-13-13---13-13-13---8--11--8--10--8--------8------|
b-13-13---13-13-13--------------------11--8----10--|
g-14-14---14-14-14---------------------------------|
d--------------------------------------------------|
a--------------------------------------------------|
e--------------------------------------------------|


e-8--8------8--8--8----8--11--8--10--8--------8----|
b-8--8------8--8--8---------------------11--8---10-|
g-9--9------9--9--9--------------------------------|
d-10-10-----10-10-10-------------------------------|
a--------------------------------------------------|
e--------------------------------------------------|

something like..
e--------------------------------------------------------|
b-8---------8---------8----------------------------------|
g---10^-10^---10^-10^---10^-10^--ect..-------------------|
d---------------------------------------13---------------|
a------------------------------------------10------------|
e---------------------------------------------13-11-8-8--|


CHORUS`:
C
e----------------------------------------------------|
b----------------------------------------------------|
g----------------------------------------------------|
d----------------------------------------------------|(x2)
a-10-10-10-12--10-10-10-12--10-10-10-12--10-10-10-12-|
e-8--8--8--8---8--8--8--8---8--8--8--8---8--8--8--8--|


F
e----------------------------------------------------|
b----------------------------------------------------|
g----------------------------------------------------|
d-10-10-10-12--10-10-10-12--10-10-10-12--10-10-10-12-|
a-8--8--8--8---8--8--8--8---8--8--8--8---8--8--8--8--|
e----------------------------------------------------|


C
e----------------------------------------------------|
b----------------------------------------------------|
g----------------------------------------------------|
d----------------------------------------------------|
a-10-10-10-12--10-10-10-12--10-10-10-12--10-10-10-12-|
e-8--8--8--8---8--8--8--8---8--8--8--8---8--8--8--8--|


Gmaj7
e---------------------------------------|
b-8----8----8----8----8----8----8----8--|
g-10---10---10---10---10---10---10---10-|
d-9----9----9----9----9----9----9----9--|
a-10---10---10---10---10---10---10---10-|
e---------------------------------------|


VERSES:
C7 D7 G
e-8--8-8-8-8-8------10-10-10-10-----3-3-3-3-6-6-6-6--|
b-8--8-8-8-8-8------10-10-10-10-----3-3-3-3-6-6-6-6--|
g-9--9-9-9-9-9------11-11-11-11-----4-4-4-4-4-4-4-4--|
d-8------------ect--10--------------5-5-5-5-5-5-5-5--|
a-10----------------12--------------5-5-5-5-5-5-5-5--|
e-8-----------------10--------------3-3-3-3-3-3-3-3--|
Tap to rate this tab
# A B C D E F G H I J K L M N O P Q R S T U V W X Y Z