Song name
# A B C D E F G H I J K L M N O P Q R S T U V W X Y Z

Reverend Horton Heat - Sue Jack Daniels tab

Sue Jack Daniels - Tab

Tabbed by weevil (timbob29@idt.net)

although this is probably the most heavily distorted track on the new album, don't let 
gain knob get away from you kids.... heh heh. ok so im only 19. anyways, keep the 
backed off a little so the higher notes can be heard ringing.

-=intro riff=-
e|--------------------------------------------------------|
B|--------------------------------------------------------|
G|-------0------------------------------------------------|
D|-------0------------------------------------------------|
A|-------5------------------------------------------------|
E|-0-1-2-3------------------------------------------------|
         keep strumming

-=verse=-
e|--------------------------------------------------------|
B|--------------------------------------------------------|
G|----------9---------------------------------------------|
D|----------8---(keep-strumming)--------------------------|
A|----------8---------------------------------------------|
E|----3-4-5-6---------------------------------------------|
       "last night i had a run in with an old friend of mine"b

    (keep strumming)
   "everything was cool everyone was feeling fine yeah!"

   then return to the other chord, and repeat...

-=chorus=-
e|---------0----------------------------------------------|
B|---------0----------------------------------------------|
G|---------1----------------------------------------------|
D|---------2----------------------------------------------|
A|---------2----------------------------------------------|
E|-3-2-1---0----------------------------------------------|
   im gonna sue jack daniels for hittin me

e|----------0---------------------------------------------|
B|----------2---------------------------------------------|
G|----------2---------------------------------------------|
D|----------2---------------------------------------------|
A|----------0---------------------------------------------|
E|--------------------------------------------------------|
   with the trunk of a big old live oak tree

e|-----2------------------------------------------------3-|
B|-----3------------------------------------------------3-|
G|-----2------------------------------------------------4-|
D|-----0------------------------------------------------5-|
A|--------------------------------------------------------|
E|--------------------------------------------------------|
he hurt me this morning wih the bright sunlight im gonna sue
  jack daniels for what he did to my face last night

  -=end of the solo=- (easy part)
e|--------------------------------------------------------|
B|--------------------------------------------------------|
G|--------------------------------------------------------|
D|------------------------7-6-5-4-2--7-6-5-4-2------------|
A|-7-6-5-4-2---7-6-5-4-2--0-0-0-0-0--0-0-0-0-0------------|
E|-0-0-0-0-0---0-0-0-0-0----------------------------------|

e|------------------------------3-------------------------|
B|------------------------------3-------------------------|
G|--7-6-5-4-2---7-6-5-4-2-------4-------------------------|
D|--0-0-0-0-0---0-0-0-0-0-------5-------------------------|
A|--------------------------------------------------------|
E|--------------------------------------------------------|

e|-/7--10--9--7------/7----/10-----/17\--/17\--/17\--/17\-|
B|-/9--9---9--9------/9----/9------/17\--/17\--/17\--/17\-|
G|-/9--9---9--9------/9----/9-----------------------------|
D|--------------------------------------------------------|
A|--------------------------------------------------------|
E|--------------------------------------------------------|

e|------------------------10-10---8-10-10-8-10-10---------|
B|-5--5---8---7---5-------10-10---8-10-10-8-10-10---------|
G|-6--6---6---6---6---------------------------------------|
D|-7--7---7---7---7---------------------------------------|
A|--------------------------------------------------------|
E|--------------------------------------------------------|

e|-10-10--12--10--14--10--12---3-5-3-3-3-3-3-5-3-3-3-3-3--|
B|--------------------------------------------------------|
G|--------------------------------------------------------|
D|--------------------------------------------------------|
A|--------------------------------------------------------|
E|--------------------------------------------------------|

-=ending=- (slight change)
e|-----------|--------------------------------------------|
B|-----------|---------7----------0-----------------------|
G|-9----6----|--9------7----------0-----------------------|
D|-8----5----|--8------7----------0-----------------------|
A|-8----5----|--8------5----------2-----------------------|
E|-6----3----|--6------5----------3-----------------------|
  alt between
  these two     then...
Tap to rate this tab
# A B C D E F G H I J K L M N O P Q R S T U V W X Y Z