Song name
# A B C D E F G H I J K L M N O P Q R S T U V W X Y Z

Reverend Horton Heat - Nyc Girls tab

-------------------------------------------------------------------------------
			     Reverend Horton Heat - New York City girls
-------------------------------------------------------------------------------
Tabbed by:myspace.com/jankanerwatvan
Email:adresvanjan@lycos.co.uk

Here's pretty much all the parts of the song, including solo. A lot of stuff 
is returning in the song, so just play the tab, and listen to the song, and 
you can figure it out. OK, have fun with my personal favorite song of the 
revival album. 
 

Intro
e|-------------------------------------------------------------------------|
B|-------------------------------------------------------------------------|
G|----5------1p0------------555-4---4--------------------------------------|
D|--1------1-----4~31-31\5~-------6---5p0-0-5~---4~3/1-3/1-----------------|
A|3------3-------------------------------------------------3---------------|
E|------------------------------------------3~-----------------------------|
                                              he! 
e|-------------------------08----------------------------------------------|
B|-------------------------09----------------------------------------------|
G|08-08-10-10-12-12-10-10--08------------10~10-8-10-8----------------------|
D|08-08-10-10-11-11-10-10--10------------10~10-8-10-8-10/9-10--------------|
A|10-10-12-12-13-13-12-12--08-------------------------10/9-10--------------|
E|08-08-10-10-11-11-10-10--08-------------------------08/7-08--------------|
                           style        and they're a lot of fun e
|08--------11--08----11-7x--08--------------------------------------------|
B|09--------11--09----11-----09--------------------------------------------|
G|08--------11--08----11-----08---10-10\08---------------------------------|
D|10------------10-----------10---09-09\07---------------------------------|
A|08------------08-----------08---10-10\08---------------------------------|
E|08------------08-3x--------08--------------------------------------------|
  New York city
solo
e|-----------------------------------------------13-10---------------------|
B|-----------------------------------------10-13---------------------------|
G|-------------3-1-0-------------5-7/10-13---------------------------------|
D|-------0-1-3-------3-1-0-0/3-6-------------------------------------------|
A|-0h1-3-------------------------------------------------------------------|
E|3------------------------------------------------------------------------|
part 2
e|08-3x-13-7x-11-3x-10--13-3x-7-6x-----------------------------------------|
B|09----13----09----09--13----8--------------------------------------------|
G|08----13----10----10--13----7--------------------------------------------|
D|10-----------------------------------------------------------------------|
A|08-----------------------------------------------------------------------|
E|-------------------------------------------------------------------------|
  city girls city girls city girls part
e|-------------------------------------------------------------------------|
B|-------------------------------------------------------------------------|
G|10~11~8---2x-10~11~10-8----repeat and then-10~11~8---2x-10~11~10-8-10~~~-|
D|10~11~8-10---10~11~10-8-10-----------------10~11~8-10---10~11~10-8-10~~~-|
A|--------10--------------10------------------------10---and then the first|
E|--------08--------------08------------------------08---one again---------|


| /  slide up
| \  slide down
| h  hammer-on
| p  pull-off
| ~  vibrato
| +  harmonic
| x  Mute note
===============================================================================
Tap to rate this tab
# A B C D E F G H I J K L M N O P Q R S T U V W X Y Z