Song name
# A B C D E F G H I J K L M N O P Q R S T U V W X Y Z

Reverend Horton Heat - Pride Of San Jacinto tab

-------------------------------------------------------------------------------
			     SONG NAME - Band Name
-------------------------------------------------------------------------------
Tabbed by: randompsyco
Email: randompsyco@gmail.com


Damn easy song

Tuning:EADGBe

  Intro
e|---------------------------------------------------------|
B|---------------------------------------------------------|
G|---------------------------------------------------------|
D|------------------------------------------------------2--|
A|-0-5-0-5----0-5-0-5----0-5---0-5-------------------2-----|
E|---------4----------4------4-----4----4-4-2-2-0-0--------|

  Verse                                                  x4
e|----------------------------------------------------------|
B|----------------------------------------------------------|
G|----------------------------------------------------------|
D|---------------------------------------------------2------|
A|-4--4-4-4--4-4-4--4-4-4------------------2--2-2-2---------|
E|-------------------------2--0--0-0-0--2-------------------|

  Pre-chorus               x3
e|---------------------------|
B|---------------------------|
G|---------------------------|
D|-------------------------2-|
A|-4--4-4-4--4-4-4--4-4-4----|
E|---------------------------|

  Chorus                                   Hoo! Ha!
e|---------------------------------------------------------------------------|
B|---------------------------------------------------------------------------|
G|---------------------------------------------------------------------------|
D|---------------------------------------2------------------------------2----|
A|-4--4-4-4--4-4-4--4-4-4--2--0--0-0-0-4-----------4-4-4--2--0--0-0-0-4------|
E|---------------------------------------------------------------------------|

e|-------------------------------------------------------------------------------------------------------------|
B|-------------------------------------------------------------------------------------------------------------|
G|-------------------------------------------------------------------------------------------------------------|
D|-----------------------------------------------------------------------------2------------------------2------|
A|-2-2-2-0---------------------2-2-2-0--------------------4-4-4--2--0--0-0-0-4-----4-4-4--2--0--0-0-0-4--------|
E|----------2--0-0--2--0-0--2----------2--0-0--2--0-0--2-------------------------------------------------------|

Intro
Verse
Pre-chorus
chorus

  Solo  (v= whammy down, ^= whammy up)

e|-----------------^12------------|----------------^14-----------------|
B|-------^14---12v-^12------^14---|-------^14--14v-^14------^14--------|
G|--13v--^13------------13v-^13--*|--13v--^13-----------13v-^13--------|
D|-------------------------------*|------------------------------------|
A|--------------------------------|------------------------------------|
E|--------------------------------|------------------------------------|

Chorus x2
Intro
Verse

Outro                      x9
e|---------------------------|--------||
B|---------------------------|--------||
G|---------------------------|--------||
D|------------------------2--|--------||
A|-4--4-4-4--4-4-4--4-4-4----|--4-----||
E|---------------------------|--------||


| /  slide up
| \  slide down
| h  hammer-on
| p  pull-off
| ~  vibrato
| +  harmonic
| x  Mute note
===============================================================================
Tap to rate this tab
 
# A B C D E F G H I J K L M N O P Q R S T U V W X Y Z